  0
SECTION
  2
HEADER
  9
$ACADVER
  1
AC1015
  9
$ACADMAINTVER
 70
     6
  9
$DWGCODEPAGE
  3
ANSI_932
  9
$INSBASE
 10
0.0
 20
0.0
 30
0.0
  9
$EXTMIN
 10
45102.0865629477
 20
22003.62803141277
 30
0.0
  9
$EXTMAX
 10
95464.74609374998
 20
65354.77903156494
 30
0.0
  9
$LIMMIN
 10
0.0
 20
0.0
  9
$LIMMAX
 10
12.0
 20
9.0
  9
$ORTHOMODE
 70
     1
  9
$REGENMODE
 70
     1
  9
$FILLMODE
 70
     1
  9
$QTEXTMODE
 70
     0
  9
$MIRRTEXT
 70
     1
  9
$LTSCALE
 40
1.0
  9
$ATTMODE
 70
     1
  9
$TEXTSIZE
 40
0.0
  9
$TRACEWID
 40
0.05
  9
$TEXTSTYLE
  7
STANDARD
  9
$CLAYER
  8
0
  9
$CELTYPE
  6
CONTINUOUS
  9
$CECOLOR
 62
   256
  9
$CELTSCALE
 40
1.0
  9
$DISPSILH
 70
     0
  9
$DIMSCALE
 40
1.0
  9
$DIMASZ
 40
0.18
  9
$DIMEXO
 40
0.0625
  9
$DIMDLI
 40
0.38
  9
$DIMRND
 40
0.0
  9
$DIMDLE
 40
0.0
  9
$DIMEXE
 40
0.18
  9
$DIMTP
 40
0.0
  9
$DIMTM
 40
0.0
  9
$DIMTXT
 40
0.18
  9
$DIMCEN
 40
0.09
  9
$DIMTSZ
 40
0.0
  9
$DIMTOL
 70
     0
  9
$DIMLIM
 70
     0
  9
$DIMTIH
 70
     1
  9
$DIMTOH
 70
     1
  9
$DIMSE1
 70
     0
  9
$DIMSE2
 70
     0
  9
$DIMTAD
 70
     0
  9
$DIMZIN
 70
     0
  9
$DIMBLK
  1

  9
$DIMASO
 70
     1
  9
$DIMSHO
 70
     1
  9
$DIMPOST
  1

  9
$DIMAPOST
  1

  9
$DIMALT
 70
     0
  9
$DIMALTD
 70
     2
  9
$DIMALTF
 40
25.4
  9
$DIMLFAC
 40
1.0
  9
$DIMTOFL
 70
     0
  9
$DIMTVP
 40
0.0
  9
$DIMTIX
 70
     0
  9
$DIMSOXD
 70
     0
  9
$DIMSAH
 70
     0
  9
$DIMBLK1
  1

  9
$DIMBLK2
  1

  9
$DIMSTYLE
  2
Standard
  9
$DIMCLRD
 70
     0
  9
$DIMCLRE
 70
     0
  9
$DIMCLRT
 70
     0
  9
$DIMTFAC
 40
1.0
  9
$DIMGAP
 40
0.09
  9
$DIMJUST
 70
     0
  9
$DIMSD1
 70
     0
  9
$DIMSD2
 70
     0
  9
$DIMTOLJ
 70
     1
  9
$DIMTZIN
 70
     0
  9
$DIMALTZ
 70
     0
  9
$DIMALTTZ
 70
     0
  9
$DIMUPT
 70
     0
  9
$DIMDEC
 70
     4
  9
$DIMTDEC
 70
     4
  9
$DIMALTU
 70
     2
  9
$DIMALTTD
 70
     2
  9
$DIMTXSTY
  7
STANDARD
  9
$DIMAUNIT
 70
     0
  9
$DIMADEC
 70
     0
  9
$DIMALTRND
 40
0.0
  9
$DIMAZIN
 70
     0
  9
$DIMDSEP
 70
    46
  9
$DIMATFIT
 70
     3
  9
$DIMFRAC
 70
     0
  9
$DIMLDRBLK
  1

  9
$DIMLUNIT
 70
     2
  9
$DIMLWD
 70
    -2
  9
$DIMLWE
 70
    -2
  9
$DIMTMOVE
 70
     0
  9
$LUNITS
 70
     2
  9
$LUPREC
 70
     4
  9
$SKETCHINC
 40
0.1
  9
$FILLETRAD
 40
0.0
  9
$AUNITS
 70
     0
  9
$AUPREC
 70
     0
  9
$MENU
  1
.
  9
$ELEVATION
 40
0.0
  9
$PELEVATION
 40
0.0
  9
$THICKNESS
 40
0.0
  9
$LIMCHECK
 70
     0
  9
$CHAMFERA
 40
0.0
  9
$CHAMFERB
 40
0.0
  9
$CHAMFERC
 40
0.0
  9
$CHAMFERD
 40
0.0
  9
$SKPOLY
 70
     0
  9
$TDCREATE
 40
2454214.748747465
  9
$TDUCREATE
 40
2454214.373747465
  9
$TDUPDATE
 40
2454217.439163032
  9
$TDUUPDATE
 40
2454217.064163032
  9
$TDINDWG
 40
0.1084617708
  9
$TDUSRTIMER
 40
0.1084617708
  9
$USRTIMER
 70
     1
  9
$ANGBASE
 50
0.0
  9
$ANGDIR
 70
     0
  9
$PDMODE
 70
     0
  9
$PDSIZE
 40
0.0
  9
$PLINEWID
 40
0.0
  9
$SPLFRAME
 70
     0
  9
$SPLINETYPE
 70
     6
  9
$SPLINESEGS
 70
     8
  9
$HANDSEED
  5
8A0
  9
$SURFTAB1
 70
     6
  9
$SURFTAB2
 70
     6
  9
$SURFTYPE
 70
     6
  9
$SURFU
 70
     6
  9
$SURFV
 70
     6
  9
$UCSBASE
  2

  9
$UCSNAME
  2

  9
$UCSORG
 10
0.0
 20
0.0
 30
0.0
  9
$UCSXDIR
 10
1.0
 20
0.0
 30
0.0
  9
$UCSYDIR
 10
0.0
 20
1.0
 30
0.0
  9
$UCSORTHOREF
  2

  9
$UCSORTHOVIEW
 70
     0
  9
$UCSORGTOP
 10
0.0
 20
0.0
 30
0.0
  9
$UCSORGBOTTOM
 10
0.0
 20
0.0
 30
0.0
  9
$UCSORGLEFT
 10
0.0
 20
0.0
 30
0.0
  9
$UCSORGRIGHT
 10
0.0
 20
0.0
 30
0.0
  9
$UCSORGFRONT
 10
0.0
 20
0.0
 30
0.0
  9
$UCSORGBACK
 10
0.0
 20
0.0
 30
0.0
  9
$PUCSBASE
  2

  9
$PUCSNAME
  2

  9
$PUCSORG
 10
0.0
 20
0.0
 30
0.0
  9
$PUCSXDIR
 10
1.0
 20
0.0
 30
0.0
  9
$PUCSYDIR
 10
0.0
 20
1.0
 30
0.0
  9
$PUCSORTHOREF
  2

  9
$PUCSORTHOVIEW
 70
     0
  9
$PUCSORGTOP
 10
0.0
 20
0.0
 30
0.0
  9
$PUCSORGBOTTOM
 10
0.0
 20
0.0
 30
0.0
  9
$PUCSORGLEFT
 10
0.0
 20
0.0
 30
0.0
  9
$PUCSORGRIGHT
 10
0.0
 20
0.0
 30
0.0
  9
$PUCSORGFRONT
 10
0.0
 20
0.0
 30
0.0
  9
$PUCSORGBACK
 10
0.0
 20
0.0
 30
0.0
  9
$USERI1
 70
     0
  9
$USERI2
 70
     0
  9
$USERI3
 70
     0
  9
$USERI4
 70
     0
  9
$USERI5
 70
     0
  9
$USERR1
 40
0.0
  9
$USERR2
 40
0.0
  9
$USERR3
 40
0.0
  9
$USERR4
 40
0.0
  9
$USERR5
 40
0.0
  9
$WORLDVIEW
 70
     1
  9
$SHADEDGE
 70
     3
  9
$SHADEDIF
 70
    70
  9
$TILEMODE
 70
     1
  9
$MAXACTVP
 70
    64
  9
$PINSBASE
 10
0.0
 20
0.0
 30
0.0
  9
$PLIMCHECK
 70
     0
  9
$PEXTMIN
 10
1.144500083810701
 20
0.8019999828864268
 30
0.0
  9
$PEXTMAX
 10
10.30050075429631
 20
7.217999845977844
 30
0.0
  9
$PLIMMIN
 10
-0.1249995194082185
 20
-0.1249999981226883
  9
$PLIMMAX
 10
11.57000083622969
 20
8.144999949012216
  9
$UNITMODE
 70
     0
  9
$VISRETAIN
 70
     1
  9
$PLINEGEN
 70
     0
  9
$PSLTSCALE
 70
     1
  9
$TREEDEPTH
 70
  3020
  9
$CMLSTYLE
  2
Standard
  9
$CMLJUST
 70
     0
  9
$CMLSCALE
 40
1.0
  9
$PROXYGRAPHICS
 70
     1
  9
$MEASUREMENT
 70
     0
  9
$CELWEIGHT
370
    -1
  9
$ENDCAPS
280
     0
  9
$JOINSTYLE
280
     0
  9
$LWDISPLAY
290
     0
  9
$INSUNITS
 70
     0
  9
$HYPERLINKBASE
  1

  9
$STYLESHEET
  1

  9
$XEDIT
290
     1
  9
$CEPSNTYPE
380
     0
  9
$PSTYLEMODE
290
     1
  9
$FINGERPRINTGUID
  2
{58FE3056-118B-406D-9F25-F4AB05CBA92D}
  9
$VERSIONGUID
  2
{EA1243A3-FC12-4064-88A8-81A0763DE078}
  9
$EXTNAMES
290
     1
  9
$PSVPSCALE
 40
0.0
  9
$OLESTARTUP
290
     0
  0
ENDSEC
  0
SECTION
  2
CLASSES
  0
CLASS
  1
ACDBDICTIONARYWDFLT
  2
AcDbDictionaryWithDefault
  3
AutoCAD 2000
 90
        0
280
     0
281
     0
  0
CLASS
  1
ACDBPLACEHOLDER
  2
AcDbPlaceHolder
  3
AutoCAD 2000
 90
        0
280
     0
281
     0
  0
CLASS
  1
LAYOUT
  2
AcDbLayout
  3
AutoCAD 2000
 90
        0
280
     0
281
     0
  0
CLASS
  1
DICTIONARYVAR
  2
AcDbDictionaryVar
  3
AutoCAD 2000
 90
        0
280
     0
281
     0
  0
ENDSEC
  0
SECTION
  2
TABLES
  0
TABLE
  2
VPORT
  5
8
330
0
100
AcDbSymbolTable
 70
     7
  0
VPORT
  5
89F
330
8
100
AcDbSymbolTableRecord
100
AcDbViewportTableRecord
  2
*Active
 70
     0
 10
0.0
 20
0.0
 11
1.0
 21
1.0
 12
66497.07449394456
 22
39528.76747472003
 13
0.0
 23
0.0
 14
1.0
 24
1.0
 15
0.0
 25
0.0
 16
0.0
 26
0.0
 36
1.0
 17
0.0
 27
0.0
 37
0.0
 40
35751.28362320387
 41
1.781954887218045
 42
50.0
 43
0.0
 44
0.0
 50
0.0
 51
0.0
 71
     0
 72
   100
 73
     1
 74
     1
 75
     0
 76
     0
 77
     0
 78
     0
281
     0
 65
     1
110
0.0
120
0.0
130
0.0
111
1.0
121
0.0
131
0.0
112
0.0
122
1.0
132
0.0
 79
     0
146
0.0
  0
ENDTAB
  0
TABLE
  2
LTYPE
  5
5
330
0
100
AcDbSymbolTable
 70
     4
  0
LTYPE
  5
13
330
5
100
AcDbSymbolTableRecord
100
AcDbLinetypeTableRecord
  2
ByBlock
 70
     0
  3

 72
    65
 73
     0
 40
0.0
  0
LTYPE
  5
14
330
5
100
AcDbSymbolTableRecord
100
AcDbLinetypeTableRecord
  2
ByLayer
 70
     0
  3

 72
    65
 73
     0
 40
0.0
  0
LTYPE
  5
15
330
5
100
AcDbSymbolTableRecord
100
AcDbLinetypeTableRecord
  2
CONTINUOUS
 70
     0
  3
CONTINUOUS
 72
    65
 73
     0
 40
0.0
  0
LTYPE
  5
22
330
5
100
AcDbSymbolTableRecord
100
AcDbLinetypeTableRecord
  2
DASHED1
 70
     0
  3
DASHED1
 72
    65
 73
     2
 40
2.5
 49
1.25
 74
     0
 49
-1.25
 74
     0
  0
LTYPE
  5
23
330
5
100
AcDbSymbolTableRecord
100
AcDbLinetypeTableRecord
  2
DASHED2
 70
     0
  3
DASHED2
 72
    65
 73
     4
 40
10.0
 49
6.25
 74
     0
 49
-1.25
 74
     0
 49
1.25
 74
     0
 49
-1.25
 74
     0
  0
LTYPE
  5
24
330
5
100
AcDbSymbolTableRecord
100
AcDbLinetypeTableRecord
  2
CENTER
 70
     0
  3
CENTER
 72
    65
 73
     2
 40
2.5
 49
0.625
 74
     0
 49
-1.875
 74
     0
  0
ENDTAB
  0
TABLE
  2
LAYER
  5
2
330
0
100
AcDbSymbolTable
 70
     2
  0
LAYER
  5
10
330
2
100
AcDbSymbolTableRecord
100
AcDbLayerTableRecord
  2
0
 70
     0
 62
     7
  6
CONTINUOUS
370
    -3
390
F
  0
LAYER
  5
25
330
2
100
AcDbSymbolTableRecord
100
AcDbLayerTableRecord
  2
LAY0_0
 70
     0
 62
     7
  6
CONTINUOUS
370
    -3
390
F
  0
ENDTAB
  0
TABLE
  2
STYLE
  5
3
330
0
100
AcDbSymbolTable
 70
     1
  0
STYLE
  5
11
330
3
100
AcDbSymbolTableRecord
100
AcDbTextStyleTableRecord
  2
STANDARD
 70
     0
 40
0.0
 41
1.0
 50
0.0
 71
     0
 42
0.0
  3
TXT
  4
BIGFONT
  0
ENDTAB
  0
TABLE
  2
VIEW
  5
6
330
0
100
AcDbSymbolTable
 70
     0
  0
ENDTAB
  0
TABLE
  2
UCS
  5
7
330
0
100
AcDbSymbolTable
 70
     0
  0
ENDTAB
  0
TABLE
  2
APPID
  5
9
330
0
100
AcDbSymbolTable
 70
     1
  0
APPID
  5
12
330
9
100
AcDbSymbolTableRecord
100
AcDbRegAppTableRecord
  2
ACAD
 70
     0
  0
ENDTAB
  0
TABLE
  2
DIMSTYLE
  5
A
330
0
100
AcDbSymbolTable
 70
     1
100
AcDbDimStyleTable
 71
     0
  0
DIMSTYLE
105
813
330
A
100
AcDbSymbolTableRecord
100
AcDbDimStyleTableRecord
  2
Standard
 70
     0
340
11
  0
ENDTAB
  0
TABLE
  2
BLOCK_RECORD
  5
1
330
0
100
AcDbSymbolTable
 70
     0
  0
BLOCK_RECORD
  5
1E
330
1
100
AcDbSymbolTableRecord
100
AcDbBlockTableRecord
  2
*Model_Space
340
21
  0
BLOCK_RECORD
  5
1A
330
1
100
AcDbSymbolTableRecord
100
AcDbBlockTableRecord
  2
*Paper_Space
340
1D
  0
ENDTAB
  0
ENDSEC
  0
SECTION
  2
BLOCKS
  0
BLOCK
  5
1F
330
1E
100
AcDbEntity
  8
0
100
AcDbBlockBegin
  2
*Model_Space
 70
     0
 10
0.0
 20
0.0
 30
0.0
  3
*Model_Space
  1

  0
ENDBLK
  5
20
330
1E
100
AcDbEntity
  8
0
100
AcDbBlockEnd
  0
BLOCK
  5
1B
330
1A
100
AcDbEntity
 67
     1
  8
0
100
AcDbBlockBegin
  2
*Paper_Space
 70
     0
 10
0.0
 20
0.0
 30
0.0
  3
*Paper_Space
  1

  0
ENDBLK
  5
1C
330
1A
100
AcDbEntity
 67
     1
  8
0
100
AcDbBlockEnd
  0
ENDSEC
  0
SECTION
  2
ENTITIES
  0
LINE
  5
29
330
1E
100
AcDbEntity
  8
LAY0_0
  6
Continuous
 62
     0
100
AcDbLine
 10
79532.82470703129
 20
49251.4770507813
 30
0.0
 11
79506.6528320313
 21
49153.81164550781
 31
0.0
  0
LINE
  5
2A
330
1E
100
AcDbEntity
  8
LAY0_0
  6
Continuous
 62
     0
100
AcDbLine
 10
79532.82470703129
 20
49251.4770507813
 30
0.0
 11
79558.99658203129
 21
49153.81164550781
 31
0.0
  0
LINE
  5
2B
330
1E
100
AcDbEntity
  8
LAY0_0
  6
Continuous
 62
     0
100
AcDbLine
 10
79532.82470703129
 20
48651.4770507813
 30
0.0
 11
79558.99658203129
 21
48749.14245605469
 31
0.0
  0
LINE
  5
2C
330
1E
100
AcDbEntity
  8
LAY0_0
  6
Continuous
 62
     0
100
AcDbLine
 10
79532.82470703129
 20
48651.4770507813
 30
0.0
 11
79506.6528320313
 21
48749.14245605469
 31
0.0
  0
LINE
  5
2D
330
1E
100
AcDbEntity
  8
LAY0_0
  6
Continuous
 62
     0
100
AcDbLine
 10
45924.7924804688
 20
44331.6772460938
 30
0.0
 11
46504.34875488291
 21
44176.3854980469
 31
0.0
  0
LINE
  5
2E
330
1E
100
AcDbEntity
  8
LAY0_0
  6
Continuous
 62
     0
100
AcDbLine
 10
45924.7924804688
 20
44331.6772460938
 30
0.0
 11
46504.34875488291
 21
44486.96899414059
 31
0.0
  0
LINE
  5
2F
330
1E
100
AcDbEntity
  8
LAY0_0
  6
Continuous
 62
     0
100
AcDbLine
 10
91424.7924804688
 20
44331.6772460938
 30
0.0
 11
90845.23925781249
 21
44486.96899414059
 31
0.0
  0
LINE
  5
30
330
1E
100
AcDbEntity
  8
LAY0_0
  6
Continuous
 62
     0
100
AcDbLine
 10
91424.7924804688
 20
44331.6772460938
 30
0.0
 11
90845.23925781249
 21
44176.3854980469
 31
0.0
  0
LINE
  5
31
330
1E
100
AcDbEntity
  8
LAY0_0
  6
Continuous
 62
     0
100
AcDbLine
 10
92542.0654296875
 20
41726.3793945313
 30
0.0
 11
92386.77368164061
 21
41146.8231201172
 31
0.0
  0
LINE
  5
32
330
1E
100
AcDbEntity
  8
LAY0_0
  6
Continuous
 62
     0
100
AcDbLine
 10
92542.0654296875
 20
41726.3793945313
 30
0.0
 11
92697.35717773439
 21
41146.8231201172
 31
0.0
  0
LINE
  5
33
330
1E
100
AcDbEntity
  8
LAY0_0
  6
Continuous
 62
     0
100
AcDbLine
 10
92542.0654296875
 20
25726.3793945313
 30
0.0
 11
92697.35717773439
 21
26305.9356689453
 31
0.0
  0
LINE
  5
34
330
1E
100
AcDbEntity
  8
LAY0_0
  6
Continuous
 62
     0
100
AcDbLine
 10
92542.0654296875
 20
25726.3793945313
 30
0.0
 11
92386.77368164061
 21
26305.9356689453
 31
0.0
  0
LINE
  5
35
330
1E
100
AcDbEntity
  8
LAY0_0
  6
Continuous
 62
     0
100
AcDbLine
 10
92202.23388671881
 20
48937.1826171875
 30
0.0
 11
92046.94213867188
 21
48357.6263427734
 31
0.0
  0
LINE
  5
36
330
1E
100
AcDbEntity
  8
LAY0_0
  6
Continuous
 62
     0
100
AcDbLine
 10
92202.23388671881
 20
48937.1826171875
 30
0.0
 11
92357.52563476561
 21
48357.6263427734
 31
0.0
  0
LINE
  5
37
330
1E
100
AcDbEntity
  8
LAY0_0
  6
Continuous
 62
     0
100
AcDbLine
 10
92202.23388671881
 20
45937.1826171875
 30
0.0
 11
92357.52563476561
 21
46516.7388916016
 31
0.0
  0
LINE
  5
38
330
1E
100
AcDbEntity
  8
LAY0_0
  6
Continuous
 62
     0
100
AcDbLine
 10
92202.23388671881
 20
45937.1826171875
 30
0.0
 11
92046.94213867188
 21
46516.7388916016
 31
0.0
  0
LINE
  5
39
330
1E
100
AcDbEntity
  8
LAY0_0
  6
Continuous
 62
     0
100
AcDbLine
 10
80179.60205078129
 20
26526.42822265629
 30
0.0
 11
62143.3715820313
 21
26526.42822265629
 31
0.0
  0
LINE
  5
3A
330
1E
100
AcDbEntity
  8
LAY0_0
  6
Continuous
 62
     0
100
AcDbLine
 10
62143.3715820313
 20
26526.42822265629
 30
0.0
 11
62143.3715820313
 21
26226.42822265629
 31
0.0
  0
LINE
  5
3B
330
1E
100
AcDbEntity
  8
LAY0_0
  6
Continuous
 62
     0
100
AcDbLine
 10
80179.60205078129
 20
26226.42822265629
 30
0.0
 11
62143.3715820313
 21
26226.42822265629
 31
0.0
  0
LINE
  5
3C
330
1E
100
AcDbEntity
  8
LAY0_0
  6
Continuous
 62
     0
100
AcDbLine
 10
53163.6962890625
 20
45937.1826171875
 30
0.0
 11
45925.10375976559
 21
47080.0415039063
 31
0.0
  0
LINE
  5
3D
330
1E
100
AcDbEntity
  8
LAY0_0
  6
CENTER
 62
     0
 48
100.0
100
AcDbLine
 10
57285.91918945309
 20
45990.33813476559
 30
0.0
 11
57848.3032226563
 21
47218.3227539063
 31
0.0
  0
LINE
  5
3E
330
1E
100
AcDbEntity
  8
LAY0_0
  6
Continuous
 62
     0
100
AcDbLine
 10
45288.48266601559
 20
48423.4252929688
 30
0.0
 11
45288.48266601559
 21
46754.8278808594
 31
0.0
  0
LINE
  5
3F
330
1E
100
AcDbEntity
  8
LAY0_0
  6
Continuous
 62
     0
100
AcDbLine
 10
45288.48266601559
 20
46754.8278808594
 30
0.0
 11
46699.5758056641
 21
46754.8278808594
 31
0.0
  0
LINE
  5
40
330
1E
100
AcDbEntity
  8
LAY0_0
  6
Continuous
 62
     0
100
AcDbLine
 10
46694.43054199219
 20
44900.8239746094
 30
0.0
 11
47538.0004882813
 21
44900.8239746094
 31
0.0
  0
LINE
  5
41
330
1E
100
AcDbEntity
  8
LAY0_0
  6
Continuous
 62
     0
100
AcDbLine
 10
47538.0004882813
 20
44808.1237792969
 30
0.0
 11
46694.43054199219
 21
44808.1237792969
 31
0.0
  0
LINE
  5
42
330
1E
100
AcDbEntity
  8
LAY0_0
  6
Continuous
 62
     0
100
AcDbLine
 10
46694.43054199219
 20
44808.1237792969
 30
0.0
 11
46694.43054199219
 21
44900.8239746094
 31
0.0
  0
LINE
  5
43
330
1E
100
AcDbEntity
  8
LAY0_0
  6
Continuous
 62
     0
100
AcDbLine
 10
46788.1591796875
 20
44947.17407226559
 30
0.0
 11
46788.1591796875
 21
46569.4274902344
 31
0.0
  0
LINE
  5
44
330
1E
100
AcDbEntity
  8
LAY0_0
  6
Continuous
 62
     0
100
AcDbLine
 10
45944.5922851563
 20
46569.4274902344
 30
0.0
 11
46928.75671386719
 21
46569.4274902344
 31
0.0
  0
LINE
  5
45
330
1E
100
AcDbEntity
  8
LAY0_0
  6
Continuous
 62
     0
100
AcDbLine
 10
45944.5922851563
 20
44947.17407226559
 30
0.0
 11
46928.75671386719
 21
44947.17407226559
 31
0.0
  0
LINE
  5
46
330
1E
100
AcDbEntity
  8
LAY0_0
  6
Continuous
 62
     0
100
AcDbLine
 10
46928.75671386719
 20
44947.17407226559
 30
0.0
 11
46928.75671386719
 21
46569.4274902344
 31
0.0
  0
LINE
  5
47
330
1E
100
AcDbEntity
  8
LAY0_0
  6
Continuous
 62
     0
100
AcDbLine
 10
45944.5922851563
 20
44947.17407226559
 30
0.0
 11
45944.5922851563
 21
46569.4274902344
 31
0.0
  0
LINE
  5
48
330
1E
100
AcDbEntity
  8
LAY0_0
  6
Continuous
 62
     0
100
AcDbLine
 10
47678.59497070309
 20
45039.87426757809
 30
0.0
 11
47678.59497070309
 21
46569.4274902344
 31
0.0
  0
LINE
  5
49
330
1E
100
AcDbEntity
  8
LAY0_0
  6
Continuous
 62
     0
100
AcDbLine
 10
47538.0004882813
 20
44808.1237792969
 30
0.0
 11
56847.6257324219
 21
45937.1826171875
 31
0.0
  0
LINE
  5
4A
330
1E
100
AcDbEntity
  8
LAY0_0
  6
Continuous
 62
     0
100
AcDbLine
 10
47538.0004882813
 20
44900.8239746094
 30
0.0
 11
50096.61993877183
 21
45295.21516205468
 31
0.0
  0
LINE
  5
4C
330
1E
100
AcDbEntity
  8
LAY0_0
  6
Continuous
 62
     0
100
AcDbLine
 10
47577.5756835938
 20
45878.1677246094
 30
0.0
 11
47592.1569824219
 21
45693.3288574219
 31
0.0
  0
LINE
  5
4D
330
1E
100
AcDbEntity
  8
LAY0_0
  6
Continuous
 62
     0
100
AcDbLine
 10
47592.1569824219
 20
45693.3288574219
 30
0.0
 11
47678.59497070309
 21
45681.4025878906
 31
0.0
  0
LINE
  5
4E
330
1E
100
AcDbEntity
  8
LAY0_0
  6
Continuous
 62
     0
100
AcDbLine
 10
47577.5756835938
 20
45878.1677246094
 30
0.0
 11
47678.59497070309
 21
45904.5593261719
 31
0.0
  0
LINE
  5
4F
330
1E
100
AcDbEntity
  8
LAY0_0
  6
Continuous
 62
     0
100
AcDbLine
 10
47484.130859375
 20
45870.95336914059
 30
0.0
 11
47498.71215820309
 21
45686.1206054688
 31
0.0
  0
LINE
  5
50
330
1E
100
AcDbEntity
  8
LAY0_0
  6
Continuous
 62
     0
100
AcDbLine
 10
47484.130859375
 20
45870.95336914059
 30
0.0
 11
47203.7933349609
 21
45849.32861328129
 31
0.0
  0
LINE
  5
51
330
1E
100
AcDbEntity
  8
LAY0_0
  6
Continuous
 62
     0
100
AcDbLine
 10
47203.7933349609
 20
45849.32861328129
 30
0.0
 11
47024.1882324219
 21
45742.4865722656
 31
0.0
  0
LINE
  5
52
330
1E
100
AcDbEntity
  8
LAY0_0
  6
Continuous
 62
     0
100
AcDbLine
 10
47024.1882324219
 20
45742.4865722656
 30
0.0
 11
47218.3715820313
 21
45664.4897460938
 31
0.0
  0
LINE
  5
53
330
1E
100
AcDbEntity
  8
LAY0_0
  6
Continuous
 62
     0
100
AcDbLine
 10
47218.3715820313
 20
45664.4897460938
 30
0.0
 11
47498.71215820309
 21
45686.1206054688
 31
0.0
  0
LINE
  5
54
330
1E
100
AcDbEntity
  8
LAY0_0
  6
Continuous
 62
     0
100
AcDbLine
 10
47297.23815917969
 20
45856.5368652344
 30
0.0
 11
47339.6514892578
 21
46510.6811523438
 31
0.0
  0
LINE
  5
55
330
1E
100
AcDbEntity
  8
LAY0_0
  6
Continuous
 62
     0
100
AcDbLine
 10
47339.6514892578
 20
46510.6811523438
 30
0.0
 11
47484.130859375
 21
45870.95336914059
 31
0.0
  0
LINE
  5
56
330
1E
100
AcDbEntity
  8
LAY0_0
  6
Continuous
 62
     0
100
AcDbLine
 10
47498.71215820309
 20
45686.1206054688
 30
0.0
 11
47456.29577636719
 21
45031.97631835941
 31
0.0
  0
LINE
  5
57
330
1E
100
AcDbEntity
  8
LAY0_0
  6
Continuous
 62
     0
100
AcDbLine
 10
47456.29577636719
 20
45031.97631835941
 30
0.0
 11
47311.81945800781
 21
45671.6979980469
 31
0.0
  0
LINE
  5
58
330
1E
100
AcDbEntity
  8
LAY0_0
  6
Continuous
 62
     0
100
AcDbLine
 10
45288.48266601559
 20
48423.4252929688
 30
0.0
 11
45663.4002685547
 21
48423.4252929688
 31
0.0
  0
LINE
  5
59
330
1E
100
AcDbEntity
  8
LAY0_0
  6
Continuous
 62
     0
100
AcDbLine
 10
58606.0974121094
 20
40267.3706054688
 30
0.0
 11
59182.2387695313
 21
40267.3706054688
 31
0.0
  0
LINE
  5
5A
330
1E
100
AcDbEntity
  8
LAY0_0
  6
Continuous
 62
     0
100
AcDbLine
 10
59850.6530761719
 20
40022.4365234375
 30
0.0
 11
59339.80102539059
 21
40022.4365234375
 31
0.0
  0
LINE
  5
5B
330
1E
100
AcDbEntity
  8
LAY0_0
  6
Continuous
 62
     0
100
AcDbLine
 10
59814.45922851559
 20
41455.6030273438
 30
0.0
 11
58637.1215820313
 21
41455.6030273438
 31
0.0
  0
LINE
  5
5C
330
1E
100
AcDbEntity
  8
LAY0_0
  6
Continuous
 62
     0
100
AcDbLine
 10
58969.0063476563
 20
41071.1791992188
 30
0.0
 11
59019.7509765625
 21
41022.705078125
 31
0.0
  0
LINE
  5
5D
330
1E
100
AcDbEntity
  8
LAY0_0
  6
Continuous
 62
     0
100
AcDbLine
 10
59851.611328125
 20
41122.94921874999
 30
0.0
 11
59851.611328125
 21
41071.1791992188
 31
0.0
  0
LINE
  5
5E
330
1E
100
AcDbEntity
  8
LAY0_0
  6
Continuous
 62
     0
100
AcDbLine
 10
59902.3559570313
 20
41022.705078125
 30
0.0
 11
59851.611328125
 21
41071.1791992188
 31
0.0
  0
LINE
  5
5F
330
1E
100
AcDbEntity
  8
LAY0_0
  6
Continuous
 62
     0
100
AcDbLine
 10
59182.2387695313
 20
40267.3706054688
 30
0.0
 11
59339.80102539059
 21
40022.4365234375
 31
0.0
  0
LINE
  5
60
330
1E
100
AcDbEntity
  8
LAY0_0
  6
Continuous
 62
     0
100
AcDbLine
 10
59902.3559570313
 20
40369.81811523439
 30
0.0
 11
59851.611328125
 21
40418.2983398438
 31
0.0
  0
LINE
  5
61
330
1E
100
AcDbEntity
  8
LAY0_0
  6
Continuous
 62
     0
100
AcDbLine
 10
58554.39453125
 20
41375.07324218749
 30
0.0
 11
58554.39453125
 21
41171.4233398438
 31
0.0
  0
LINE
  5
62
330
1E
100
AcDbEntity
  8
LAY0_0
  6
Continuous
 62
     0
100
AcDbLine
 10
59070.4956054688
 20
40470.06225585939
 30
0.0
 11
59434.3139648438
 21
40470.06225585939
 31
0.0
  0
LINE
  5
63
330
1E
100
AcDbEntity
  8
LAY0_0
  6
Continuous
 62
     0
100
AcDbLine
 10
59535.80932617191
 20
40470.06225585939
 30
0.0
 11
59851.611328125
 21
40470.06225585939
 31
0.0
  0
LINE
  5
64
330
1E
100
AcDbEntity
  8
LAY0_0
  6
Continuous
 62
     0
100
AcDbLine
 10
59535.80932617191
 20
41071.1791992188
 30
0.0
 11
59851.611328125
 21
41071.1791992188
 31
0.0
  0
LINE
  5
65
330
1E
100
AcDbEntity
  8
LAY0_0
  6
Continuous
 62
     0
100
AcDbLine
 10
59070.4956054688
 20
41071.1791992188
 30
0.0
 11
59434.3139648438
 21
41071.1791992188
 31
0.0
  0
LINE
  5
66
330
1E
100
AcDbEntity
  8
LAY0_0
  6
Continuous
 62
     0
100
AcDbLine
 10
59902.3559570313
 20
41171.4233398438
 30
0.0
 11
59851.611328125
 21
41122.94921874999
 31
0.0
  0
LINE
  5
67
330
1E
100
AcDbEntity
  8
LAY0_0
  6
Continuous
 62
     0
100
AcDbLine
 10
59902.3559570313
 20
41370.0500488281
 30
0.0
 11
59902.3559570313
 21
41171.4233398438
 31
0.0
  0
LINE
  5
68
330
1E
100
AcDbEntity
  8
LAY0_0
  6
Continuous
 62
     0
100
AcDbLine
 10
59434.3139648438
 20
41071.1791992188
 30
0.0
 11
59485.06469726559
 21
41022.705078125
 31
0.0
  0
LINE
  5
69
330
1E
100
AcDbEntity
  8
LAY0_0
  6
Continuous
 62
     0
100
AcDbLine
 10
59485.06469726559
 20
41022.705078125
 30
0.0
 11
59485.06469726559
 21
40518.5363769531
 31
0.0
  0
LINE
  5
6A
330
1E
100
AcDbEntity
  8
LAY0_0
  6
Continuous
 62
     0
100
AcDbLine
 10
82766.62597656249
 20
27933.0322265625
 30
0.0
 11
83070.58715820309
 21
27933.0322265625
 31
0.0
  0
LINE
  5
6B
330
1E
100
AcDbEntity
  8
LAY0_0
  6
Continuous
 62
     0
100
AcDbLine
 10
82301.31225585941
 20
27933.0322265625
 30
0.0
 11
82665.1306152344
 21
27933.0322265625
 31
0.0
  0
LINE
  5
6C
330
1E
100
AcDbEntity
  8
LAY0_0
  6
Continuous
 62
     0
100
AcDbLine
 10
83121.32568359379
 20
28485.6811523438
 30
0.0
 11
83070.58715820309
 21
28534.14306640629
 31
0.0
  0
LINE
  5
6D
330
1E
100
AcDbEntity
  8
LAY0_0
  6
Continuous
 62
     0
100
AcDbLine
 10
81838.5986328125
 20
28485.6811523438
 30
0.0
 11
81889.3371582031
 21
28534.14306640629
 31
0.0
  0
LINE
  5
6E
330
1E
100
AcDbEntity
  8
LAY0_0
  6
Continuous
 62
     0
100
AcDbLine
 10
82665.1306152344
 20
28534.14306640629
 30
0.0
 11
82715.8752441406
 21
28485.6811523438
 31
0.0
  0
LINE
  5
6F
330
1E
100
AcDbEntity
  8
LAY0_0
  6
Continuous
 62
     0
100
AcDbLine
 10
82715.8752441406
 20
28485.6811523438
 30
0.0
 11
82766.62597656249
 21
28534.14306640629
 31
0.0
  0
LINE
  5
70
330
1E
100
AcDbEntity
  8
LAY0_0
  6
Continuous
 62
     0
100
AcDbLine
 10
82250.5615234375
 20
27981.50634765629
 30
0.0
 11
82250.5615234375
 21
28485.6811523438
 31
0.0
  0
LINE
  5
71
330
1E
100
AcDbEntity
  8
LAY0_0
  6
Continuous
 62
     0
100
AcDbLine
 10
82250.5615234375
 20
28485.6811523438
 30
0.0
 11
82301.31225585941
 21
28534.14306640629
 31
0.0
  0
LINE
  5
72
330
1E
100
AcDbEntity
  8
LAY0_0
  6
Continuous
 62
     0
100
AcDbLine
 10
82766.62597656249
 20
28534.14306640629
 30
0.0
 11
83070.58715820309
 21
28534.14306640629
 31
0.0
  0
LINE
  5
73
330
1E
100
AcDbEntity
  8
LAY0_0
  6
Continuous
 62
     0
100
AcDbLine
 10
59851.611328125
 20
40470.06225585939
 30
0.0
 11
59851.611328125
 21
40418.2983398438
 31
0.0
  0
LINE
  5
74
330
1E
100
AcDbEntity
  8
LAY0_0
  6
Continuous
 62
     0
100
AcDbLine
 10
58606.0974121094
 20
40267.3706054688
 30
0.0
 11
58554.39453125
 21
40317.71240234379
 31
0.0
  0
LINE
  5
75
330
1E
100
AcDbEntity
  8
LAY0_0
  6
Continuous
 62
     0
100
AcDbLine
 10
59485.06469726559
 20
41022.705078125
 30
0.0
 11
59535.80932617191
 21
41071.1791992188
 31
0.0
  0
LINE
  5
76
330
1E
100
AcDbEntity
  8
LAY0_0
  6
Continuous
 62
     0
100
AcDbLine
 10
59902.3559570313
 20
40369.81811523439
 30
0.0
 11
59902.3559570313
 21
40072.7661132813
 31
0.0
  0
LINE
  5
77
330
1E
100
AcDbEntity
  8
LAY0_0
  6
Continuous
 62
     0
100
AcDbLine
 10
81838.5986328125
 20
28634.3933105469
 30
0.0
 11
81889.3371582031
 21
28585.92529296879
 31
0.0
  0
LINE
  5
78
330
1E
100
AcDbEntity
  8
LAY0_0
  6
Continuous
 62
     0
100
AcDbLine
 10
82301.31225585941
 20
28534.14306640629
 30
0.0
 11
82665.1306152344
 21
28534.14306640629
 31
0.0
  0
LINE
  5
79
330
1E
100
AcDbEntity
  8
LAY0_0
  6
Continuous
 62
     0
100
AcDbLine
 10
59902.3559570313
 20
40072.7661132813
 30
0.0
 11
59850.6530761719
 21
40022.4365234375
 31
0.0
  0
LINE
  5
7A
330
1E
100
AcDbEntity
  8
LAY0_0
  6
Continuous
 62
     0
100
AcDbLine
 10
83121.32568359379
 20
28634.3933105469
 30
0.0
 11
83070.58105468749
 21
28585.92529296879
 31
0.0
  0
LINE
  5
7B
330
1E
100
AcDbEntity
  8
LAY0_0
  6
Continuous
 62
     0
100
AcDbLine
 10
59014.2456054688
 20
26979.2419433594
 30
0.0
 11
59064.990234375
 21
27027.72216796879
 31
0.0
  0
LINE
  5
7C
330
1E
100
AcDbEntity
  8
LAY0_0
  6
Continuous
 62
     0
100
AcDbLine
 10
58548.8891601563
 20
27127.96630859379
 30
0.0
 11
58548.8891601563
 21
27180.078125
 31
0.0
  0
LINE
  5
7D
330
1E
100
AcDbEntity
  8
LAY0_0
  6
Continuous
 62
     0
100
AcDbLine
 10
58600.5981445313
 20
27230.4138183594
 30
0.0
 11
59176.7333984375
 21
27230.4138183594
 31
0.0
  0
LINE
  5
7E
330
1E
100
AcDbEntity
  8
LAY0_0
  6
Continuous
 62
     0
100
AcDbLine
 10
59845.14770507809
 20
27475.34179687499
 30
0.0
 11
59334.3017578125
 21
27475.34179687499
 31
0.0
  0
LINE
  5
7F
330
1E
100
AcDbEntity
  8
LAY0_0
  6
Continuous
 62
     0
100
AcDbLine
 10
58554.39453125
 20
40518.5363769531
 30
0.0
 11
58605.1391601563
 21
40470.06225585939
 31
0.0
  0
LINE
  5
80
330
1E
100
AcDbEntity
  8
LAY0_0
  6
Continuous
 62
     0
100
AcDbLine
 10
58605.1391601563
 20
40470.06225585939
 30
0.0
 11
58969.0063476563
 21
40470.06225585939
 31
0.0
  0
LINE
  5
81
330
1E
100
AcDbEntity
  8
LAY0_0
  6
Continuous
 62
     0
100
AcDbLine
 10
58600.5981445313
 20
27230.4138183594
 30
0.0
 11
58548.8891601563
 21
27180.078125
 31
0.0
  0
LINE
  5
82
330
1E
100
AcDbEntity
  8
LAY0_0
  6
Continuous
 62
     0
100
AcDbLine
 10
59845.14770507809
 20
27475.34179687499
 30
0.0
 11
59896.85668945309
 21
27425.01220703129
 31
0.0
  0
LINE
  5
83
330
1E
100
AcDbEntity
  8
LAY0_0
  6
Continuous
 62
     0
100
AcDbLine
 10
58963.5009765625
 20
27027.72216796879
 30
0.0
 11
59014.2456054688
 21
26979.2419433594
 31
0.0
  0
LINE
  5
84
330
1E
100
AcDbEntity
  8
LAY0_0
  6
Continuous
 62
     0
100
AcDbLine
 10
58599.6459960938
 20
27027.72216796879
 30
0.0
 11
58599.6459960938
 21
27079.4860839844
 31
0.0
  0
LINE
  5
85
330
1E
100
AcDbEntity
  8
LAY0_0
  6
Continuous
 62
     0
100
AcDbLine
 10
58599.6459960938
 20
27027.72216796879
 30
0.0
 11
58963.5009765625
 21
27027.72216796879
 31
0.0
  0
LINE
  5
86
330
1E
100
AcDbEntity
  8
LAY0_0
  6
Continuous
 62
     0
100
AcDbLine
 10
59896.85668945309
 20
26979.2419433594
 30
0.0
 11
59846.1120605469
 21
27027.72216796879
 31
0.0
  0
LINE
  5
87
330
1E
100
AcDbEntity
  8
LAY0_0
  6
Continuous
 62
     0
100
AcDbLine
 10
58548.8891601563
 20
26979.2419433594
 30
0.0
 11
58599.6459960938
 21
27027.72216796879
 31
0.0
  0
LINE
  5
88
330
1E
100
AcDbEntity
  8
LAY0_0
  6
Continuous
 62
     0
100
AcDbLine
 10
59530.30395507809
 20
27027.72216796879
 30
0.0
 11
59846.1120605469
 21
27027.72216796879
 31
0.0
  0
LINE
  5
89
330
1E
100
AcDbEntity
  8
LAY0_0
  6
Continuous
 62
     0
100
AcDbLine
 10
59176.7333984375
 20
27230.4138183594
 30
0.0
 11
59334.3017578125
 21
27475.34179687499
 31
0.0
  0
LINE
  5
8A
330
1E
100
AcDbEntity
  8
LAY0_0
  6
Continuous
 62
     0
100
AcDbLine
 10
58548.8891601563
 20
27127.96630859379
 30
0.0
 11
58599.6459960938
 21
27079.4860839844
 31
0.0
  0
LINE
  5
8B
330
1E
100
AcDbEntity
  8
LAY0_0
  6
Continuous
 62
     0
100
AcDbLine
 10
59896.85668945309
 20
27127.96630859379
 30
0.0
 11
59896.85668945309
 21
27425.01220703129
 31
0.0
  0
LINE
  5
8C
330
1E
100
AcDbEntity
  8
LAY0_0
  6
Continuous
 62
     0
100
AcDbLine
 10
59019.7509765625
 20
40518.5363769531
 30
0.0
 11
59070.4956054688
 21
40470.06225585939
 31
0.0
  0
LINE
  5
8D
330
1E
100
AcDbEntity
  8
LAY0_0
  6
Continuous
 62
     0
100
AcDbLine
 10
59434.3139648438
 20
40470.06225585939
 30
0.0
 11
59485.06469726559
 21
40518.5363769531
 31
0.0
  0
LINE
  5
8E
330
1E
100
AcDbEntity
  8
LAY0_0
  6
Continuous
 62
     0
100
AcDbLine
 10
58554.39453125
 20
40369.81811523439
 30
0.0
 11
58554.39453125
 21
40317.71240234379
 31
0.0
  0
LINE
  5
8F
330
1E
100
AcDbEntity
  8
LAY0_0
  6
Continuous
 62
     0
100
AcDbLine
 10
59902.3559570313
 20
41022.705078125
 30
0.0
 11
59902.3559570313
 21
40518.52416992189
 31
0.0
  0
LINE
  5
90
330
1E
100
AcDbEntity
  8
LAY0_0
  6
Continuous
 62
     0
100
AcDbLine
 10
58969.0063476563
 20
40470.06225585939
 30
0.0
 11
59019.7509765625
 21
40518.5363769531
 31
0.0
  0
LINE
  5
91
330
1E
100
AcDbEntity
  8
LAY0_0
  6
Continuous
 62
     0
100
AcDbLine
 10
59902.3559570313
 20
40518.52416992189
 30
0.0
 11
59851.611328125
 21
40470.06225585939
 31
0.0
  0
LINE
  5
92
330
1E
100
AcDbEntity
  8
LAY0_0
  6
Continuous
 62
     0
100
AcDbLine
 10
59485.06469726559
 20
40518.5363769531
 30
0.0
 11
59535.80932617191
 21
40470.06225585939
 31
0.0
  0
LINE
  5
93
330
1E
100
AcDbEntity
  8
LAY0_0
  6
Continuous
 62
     0
100
AcDbLine
 10
59019.7509765625
 20
41022.705078125
 30
0.0
 11
59070.4956054688
 21
41071.1791992188
 31
0.0
  0
LINE
  5
94
330
1E
100
AcDbEntity
  8
LAY0_0
  6
Continuous
 62
     0
100
AcDbLine
 10
58554.39453125
 20
41022.705078125
 30
0.0
 11
58605.1391601563
 21
41071.1791992188
 31
0.0
  0
LINE
  5
95
330
1E
100
AcDbEntity
  8
LAY0_0
  6
Continuous
 62
     0
100
AcDbLine
 10
58605.1391601563
 20
41071.1791992188
 30
0.0
 11
58969.0063476563
 21
41071.1791992188
 31
0.0
  0
LINE
  5
96
330
1E
100
AcDbEntity
  8
LAY0_0
  6
Continuous
 62
     0
100
AcDbLine
 10
59019.7509765625
 20
41022.705078125
 30
0.0
 11
59019.7509765625
 21
40518.5363769531
 31
0.0
  0
LINE
  5
97
330
1E
100
AcDbEntity
  8
LAY0_0
  6
Continuous
 62
     0
100
AcDbLine
 10
58554.39453125
 20
40369.81811523439
 30
0.0
 11
58605.1391601563
 21
40418.2983398438
 31
0.0
  0
LINE
  5
98
330
1E
100
AcDbEntity
  8
LAY0_0
  6
Continuous
 62
     0
100
AcDbLine
 10
58605.1391601563
 20
40470.06225585939
 30
0.0
 11
58605.1391601563
 21
40418.2983398438
 31
0.0
  0
LINE
  5
99
330
1E
100
AcDbEntity
  8
LAY0_0
  6
Continuous
 62
     0
100
AcDbLine
 10
59902.3559570313
 20
41370.0500488281
 30
0.0
 11
59814.45922851559
 21
41455.6030273438
 31
0.0
  0
LINE
  5
9A
330
1E
100
AcDbEntity
  8
LAY0_0
  6
Continuous
 62
     0
100
AcDbLine
 10
58605.1391601563
 20
41122.94921874999
 30
0.0
 11
58605.1391601563
 21
41071.1791992188
 31
0.0
  0
LINE
  5
9B
330
1E
100
AcDbEntity
  8
LAY0_0
  6
Continuous
 62
     0
100
AcDbLine
 10
58554.39453125
 20
41375.07324218749
 30
0.0
 11
58637.1215820313
 21
41455.6030273438
 31
0.0
  0
LINE
  5
9C
330
1E
100
AcDbEntity
  8
LAY0_0
  6
Continuous
 62
     0
100
AcDbLine
 10
58554.39453125
 20
41171.4233398438
 30
0.0
 11
58605.1391601563
 21
41122.94921874999
 31
0.0
  0
LINE
  5
9D
330
1E
100
AcDbEntity
  8
LAY0_0
  6
Continuous
 62
     0
100
AcDbLine
 10
82250.5615234375
 20
27981.50634765629
 30
0.0
 11
82301.31225585941
 21
27933.0322265625
 31
0.0
  0
LINE
  5
9E
330
1E
100
AcDbEntity
  8
LAY0_0
  6
Continuous
 62
     0
100
AcDbLine
 10
83121.32568359379
 20
27140.9912109375
 30
0.0
 11
83070.58715820309
 21
27092.5231933594
 31
0.0
  0
LINE
  5
9F
330
1E
100
AcDbEntity
  8
LAY0_0
  6
Continuous
 62
     0
100
AcDbLine
 10
83070.58715820309
 20
27040.7409667969
 30
0.0
 11
83070.58715820309
 21
27092.5231933594
 31
0.0
  0
LINE
  5
A0
330
1E
100
AcDbEntity
  8
LAY0_0
  6
Continuous
 62
     0
100
AcDbLine
 10
83121.32568359379
 20
26944.03076171879
 30
0.0
 11
83121.32568359379
 21
26992.28515625
 31
0.0
  0
LINE
  5
A1
330
1E
100
AcDbEntity
  8
LAY0_0
  6
Continuous
 62
     0
100
AcDbLine
 10
83121.32568359379
 20
26992.28515625
 30
0.0
 11
83070.58715820309
 21
27040.7409667969
 31
0.0
  0
LINE
  5
A2
330
1E
100
AcDbEntity
  8
LAY0_0
  6
Continuous
 62
     0
100
AcDbLine
 10
81838.5986328125
 20
26992.2790527344
 30
0.0
 11
81889.3432617188
 21
27040.7409667969
 31
0.0
  0
LINE
  5
A3
330
1E
100
AcDbEntity
  8
LAY0_0
  6
Continuous
 62
     0
100
AcDbLine
 10
81889.3432617188
 20
27040.7409667969
 30
0.0
 11
81889.3432617188
 21
27092.5231933594
 31
0.0
  0
LINE
  5
A4
330
1E
100
AcDbEntity
  8
LAY0_0
  6
Continuous
 62
     0
100
AcDbLine
 10
81890.2954101563
 20
26893.6950683594
 30
0.0
 11
82254.6752929688
 21
26893.6950683594
 31
0.0
  0
LINE
  5
A5
330
1E
100
AcDbEntity
  8
LAY0_0
  6
Continuous
 62
     0
100
AcDbLine
 10
81838.5986328125
 20
26944.0185546875
 30
0.0
 11
81838.5986328125
 21
26992.2790527344
 31
0.0
  0
LINE
  5
A6
330
1E
100
AcDbEntity
  8
LAY0_0
  6
Continuous
 62
     0
100
AcDbLine
 10
82221.4477539063
 20
26861.94458007809
 30
0.0
 11
82305.419921875
 21
26942.1691894531
 31
0.0
  0
LINE
  5
A7
330
1E
100
AcDbEntity
  8
LAY0_0
  6
Continuous
 62
     0
100
AcDbLine
 10
82301.31225585941
 20
27693.6401367188
 30
0.0
 11
82665.1306152344
 21
27693.6401367188
 31
0.0
  0
LINE
  5
A8
330
1E
100
AcDbEntity
  8
LAY0_0
  6
Continuous
 62
     0
100
AcDbLine
 10
82665.1306152344
 20
27092.5231933594
 30
0.0
 11
82715.8752441406
 21
27140.9912109375
 31
0.0
  0
LINE
  5
A9
330
1E
100
AcDbEntity
  8
LAY0_0
  6
Continuous
 62
     0
100
AcDbLine
 10
82250.5615234375
 20
27140.9912109375
 30
0.0
 11
82301.31225585941
 21
27092.5231933594
 31
0.0
  0
LINE
  5
AA
330
1E
100
AcDbEntity
  8
LAY0_0
  6
Continuous
 62
     0
100
AcDbLine
 10
82199.81689453129
 20
27693.6401367188
 30
0.0
 11
82250.5615234375
 21
27645.166015625
 31
0.0
  0
LINE
  5
AB
330
1E
100
AcDbEntity
  8
LAY0_0
  6
Continuous
 62
     0
100
AcDbLine
 10
82715.8752441406
 20
27140.9912109375
 30
0.0
 11
82766.62597656249
 21
27092.5231933594
 31
0.0
  0
LINE
  5
AC
330
1E
100
AcDbEntity
  8
LAY0_0
  6
Continuous
 62
     0
100
AcDbLine
 10
82654.49218749999
 20
26942.1691894531
 30
0.0
 11
82738.48876953129
 21
26861.9323730469
 31
0.0
  0
LINE
  5
AD
330
1E
100
AcDbEntity
  8
LAY0_0
  6
Continuous
 62
     0
100
AcDbLine
 10
82715.8752441406
 20
27140.9912109375
 30
0.0
 11
82715.8752441406
 21
27645.166015625
 31
0.0
  0
LINE
  5
AE
330
1E
100
AcDbEntity
  8
LAY0_0
  6
Continuous
 62
     0
100
AcDbLine
 10
82199.81689453129
 20
27092.5231933594
 30
0.0
 11
82250.5615234375
 21
27140.9912109375
 31
0.0
  0
LINE
  5
AF
330
1E
100
AcDbEntity
  8
LAY0_0
  6
Continuous
 62
     0
100
AcDbLine
 10
82333.984375
 20
29157.0922851563
 30
0.0
 11
81970.77026367191
 21
29157.0922851563
 31
0.0
  0
LINE
  5
B0
330
1E
100
AcDbEntity
  8
LAY0_0
  6
Continuous
 62
     0
100
AcDbLine
 10
81919.0673828125
 20
29106.7565917969
 30
0.0
 11
81919.0673828125
 21
28881.84814453129
 31
0.0
  0
LINE
  5
B1
330
1E
100
AcDbEntity
  8
LAY0_0
  6
Continuous
 62
     0
100
AcDbLine
 10
81919.0673828125
 20
28881.84814453129
 30
0.0
 11
82385.6872558594
 21
28881.84814453129
 31
0.0
  0
LINE
  5
B2
330
1E
100
AcDbEntity
  8
LAY0_0
  6
Continuous
 62
     0
100
AcDbLine
 10
82385.6872558594
 20
28881.84814453129
 30
0.0
 11
82385.6872558594
 21
29106.7565917969
 31
0.0
  0
LINE
  5
B3
330
1E
100
AcDbEntity
  8
LAY0_0
  6
Continuous
 62
     0
100
AcDbLine
 10
81838.5986328125
 20
26944.0185546875
 30
0.0
 11
81890.2954101563
 21
26893.6950683594
 31
0.0
  0
LINE
  5
B4
330
1E
100
AcDbEntity
  8
LAY0_0
  6
Continuous
 62
     0
100
AcDbLine
 10
83069.6533203125
 20
26893.6950683594
 30
0.0
 11
83121.3623046875
 21
26944.03076171879
 31
0.0
  0
LINE
  5
B5
330
1E
100
AcDbEntity
  8
LAY0_0
  6
Continuous
 62
     0
100
AcDbLine
 10
81838.5986328125
 20
28831.5124511719
 30
0.0
 11
81890.2954101563
 21
28881.84814453129
 31
0.0
  0
LINE
  5
B6
330
1E
100
AcDbEntity
  8
LAY0_0
  6
Continuous
 62
     0
100
AcDbLine
 10
83069.62890624999
 20
28881.84814453129
 30
0.0
 11
83121.32568359379
 21
28831.5124511719
 31
0.0
  0
LINE
  5
B7
330
1E
100
AcDbEntity
  8
LAY0_0
  6
Continuous
 62
     0
100
AcDbLine
 10
83121.32568359379
 20
28831.5124511719
 30
0.0
 11
83121.32568359379
 21
28634.3933105469
 31
0.0
  0
LINE
  5
B8
330
1E
100
AcDbEntity
  8
LAY0_0
  6
Continuous
 62
     0
100
AcDbLine
 10
81889.3432617188
 20
27092.5231933594
 30
0.0
 11
82199.81689453129
 21
27092.5231933594
 31
0.0
  0
LINE
  5
B9
330
1E
100
AcDbEntity
  8
LAY0_0
  6
Continuous
 62
     0
100
AcDbLine
 10
82705.23681640629
 20
26893.6950683594
 30
0.0
 11
83069.6533203125
 21
26893.6950683594
 31
0.0
  0
LINE
  5
BA
330
1E
100
AcDbEntity
  8
LAY0_0
  6
Continuous
 62
     0
100
AcDbLine
 10
81838.5986328125
 20
27140.9912109375
 30
0.0
 11
81889.3432617188
 21
27092.5231933594
 31
0.0
  0
LINE
  5
BB
330
1E
100
AcDbEntity
  8
LAY0_0
  6
Continuous
 62
     0
100
AcDbLine
 10
81838.5986328125
 20
27645.166015625
 30
0.0
 11
81838.5986328125
 21
27140.9912109375
 31
0.0
  0
LINE
  5
BC
330
1E
100
AcDbEntity
  8
LAY0_0
  6
Continuous
 62
     0
100
AcDbLine
 10
81890.2954101563
 20
28881.84814453129
 30
0.0
 11
83069.62890624999
 21
28881.84814453129
 31
0.0
  0
LINE
  5
BD
330
1E
100
AcDbEntity
  8
LAY0_0
  6
Continuous
 62
     0
100
AcDbLine
 10
83121.32568359379
 20
27645.166015625
 30
0.0
 11
83121.32568359379
 21
27140.9912109375
 31
0.0
  0
LINE
  5
BE
330
1E
100
AcDbEntity
  8
LAY0_0
  6
Continuous
 62
     0
100
AcDbLine
 10
82654.49218749999
 20
26942.1691894531
 30
0.0
 11
82305.419921875
 21
26942.1691894531
 31
0.0
  0
LINE
  5
BF
330
1E
100
AcDbEntity
  8
LAY0_0
  6
Continuous
 62
     0
100
AcDbLine
 10
81838.5986328125
 20
28831.5124511719
 30
0.0
 11
81838.5986328125
 21
28634.3933105469
 31
0.0
  0
LINE
  5
C0
330
1E
100
AcDbEntity
  8
LAY0_0
  6
Continuous
 62
     0
100
AcDbLine
 10
83070.58105468749
 20
28534.14306640629
 30
0.0
 11
83070.58105468749
 21
28585.92529296879
 31
0.0
  0
LINE
  5
C1
330
1E
100
AcDbEntity
  8
LAY0_0
  6
Continuous
 62
     0
100
AcDbLine
 10
83121.32568359379
 20
28167.32177734379
 30
0.0
 11
83121.32568359379
 21
28485.6811523438
 31
0.0
  0
LINE
  5
C2
330
1E
100
AcDbEntity
  8
LAY0_0
  6
Continuous
 62
     0
100
AcDbLine
 10
81889.3371582031
 20
28534.14306640629
 30
0.0
 11
82199.81689453129
 21
28534.14306640629
 31
0.0
  0
LINE
  5
C3
330
1E
100
AcDbEntity
  8
LAY0_0
  6
Continuous
 62
     0
100
AcDbLine
 10
83121.32568359379
 20
28485.6811523438
 30
0.0
 11
83070.58105468749
 21
28534.14306640629
 31
0.0
  0
LINE
  5
C4
330
1E
100
AcDbEntity
  8
LAY0_0
  6
Continuous
 62
     0
100
AcDbLine
 10
83121.32568359379
 20
27981.5124511719
 30
0.0
 11
83070.58715820309
 21
27933.0322265625
 31
0.0
  0
LINE
  5
C5
330
1E
100
AcDbEntity
  8
LAY0_0
  6
Continuous
 62
     0
100
AcDbLine
 10
83070.58715820309
 20
27881.25610351559
 30
0.0
 11
83070.58715820309
 21
27933.0322265625
 31
0.0
  0
LINE
  5
C6
330
1E
100
AcDbEntity
  8
LAY0_0
  6
Continuous
 62
     0
100
AcDbLine
 10
81889.3371582031
 20
28534.14306640629
 30
0.0
 11
81889.3371582031
 21
28585.92529296879
 31
0.0
  0
LINE
  5
C7
330
1E
100
AcDbEntity
  8
LAY0_0
  6
Continuous
 62
     0
100
AcDbLine
 10
81838.5986328125
 20
27981.50634765629
 30
0.0
 11
81838.5986328125
 21
28485.6811523438
 31
0.0
  0
LINE
  5
C8
330
1E
100
AcDbEntity
  8
LAY0_0
  6
Continuous
 62
     0
100
AcDbLine
 10
83121.32568359379
 20
28485.6811523438
 30
0.0
 11
83121.32568359379
 21
27981.5124511719
 31
0.0
  0
LINE
  5
C9
330
1E
100
AcDbEntity
  8
LAY0_0
  6
Continuous
 62
     0
100
AcDbLine
 10
82665.1306152344
 20
27933.0322265625
 30
0.0
 11
82715.8752441406
 21
27981.50634765629
 31
0.0
  0
LINE
  5
CA
330
1E
100
AcDbEntity
  8
LAY0_0
  6
Continuous
 62
     0
100
AcDbLine
 10
82715.8752441406
 20
27981.50634765629
 30
0.0
 11
82715.8752441406
 21
28485.6811523438
 31
0.0
  0
LINE
  5
CB
330
1E
100
AcDbEntity
  8
LAY0_0
  6
Continuous
 62
     0
100
AcDbLine
 10
82199.81689453129
 20
28534.14306640629
 30
0.0
 11
82250.5615234375
 21
28485.6811523438
 31
0.0
  0
LINE
  5
CC
330
1E
100
AcDbEntity
  8
LAY0_0
  6
Continuous
 62
     0
100
AcDbLine
 10
82301.31225585941
 20
28534.14306640629
 30
0.0
 11
82665.1306152344
 21
28534.14306640629
 31
0.0
  0
LINE
  5
CD
330
1E
100
AcDbEntity
  8
LAY0_0
  6
Continuous
 62
     0
100
AcDbLine
 10
81838.5986328125
 20
27981.50634765629
 30
0.0
 11
81889.3432617188
 21
27933.0322265625
 31
0.0
  0
LINE
  5
CE
330
1E
100
AcDbEntity
  8
LAY0_0
  6
Continuous
 62
     0
100
AcDbLine
 10
81889.3432617188
 20
27933.0322265625
 30
0.0
 11
82199.81689453129
 21
27933.0322265625
 31
0.0
  0
LINE
  5
CF
330
1E
100
AcDbEntity
  8
LAY0_0
  6
Continuous
 62
     0
100
AcDbLine
 10
82199.81689453129
 20
27933.0322265625
 30
0.0
 11
82250.5615234375
 21
27981.50634765629
 31
0.0
  0
LINE
  5
D0
330
1E
100
AcDbEntity
  8
LAY0_0
  6
Continuous
 62
     0
100
AcDbLine
 10
82715.8752441406
 20
27981.50634765629
 30
0.0
 11
82766.62597656249
 21
27933.0322265625
 31
0.0
  0
LINE
  5
D1
330
1E
100
AcDbEntity
  8
LAY0_0
  6
Continuous
 62
     0
100
AcDbLine
 10
82766.62597656249
 20
27092.5231933594
 30
0.0
 11
83070.58715820309
 21
27092.5231933594
 31
0.0
  0
LINE
  5
D2
330
1E
100
AcDbEntity
  8
LAY0_0
  6
Continuous
 62
     0
100
AcDbLine
 10
82301.31225585941
 20
27092.5231933594
 30
0.0
 11
82665.1306152344
 21
27092.5231933594
 31
0.0
  0
LINE
  5
D3
330
1E
100
AcDbEntity
  8
LAY0_0
  6
Continuous
 62
     0
100
AcDbLine
 10
81889.3371582031
 20
27693.6401367188
 30
0.0
 11
81889.3371582031
 21
27745.4162597656
 31
0.0
  0
LINE
  5
D4
330
1E
100
AcDbEntity
  8
LAY0_0
  6
Continuous
 62
     0
100
AcDbLine
 10
81838.5986328125
 20
27793.88427734379
 30
0.0
 11
81838.5986328125
 21
27832.7880859375
 31
0.0
  0
LINE
  5
D5
330
1E
100
AcDbEntity
  8
LAY0_0
  6
Continuous
 62
     0
100
AcDbLine
 10
82665.1306152344
 20
27693.6401367188
 30
0.0
 11
82715.8752441406
 21
27645.166015625
 31
0.0
  0
LINE
  5
D6
330
1E
100
AcDbEntity
  8
LAY0_0
  6
Continuous
 62
     0
100
AcDbLine
 10
82715.8752441406
 20
27645.166015625
 30
0.0
 11
82766.62597656249
 21
27693.6401367188
 31
0.0
  0
LINE
  5
D7
330
1E
100
AcDbEntity
  8
LAY0_0
  6
Continuous
 62
     0
100
AcDbLine
 10
82250.5615234375
 20
27140.9912109375
 30
0.0
 11
82250.5615234375
 21
27645.166015625
 31
0.0
  0
LINE
  5
D8
330
1E
100
AcDbEntity
  8
LAY0_0
  6
Continuous
 62
     0
100
AcDbLine
 10
82250.5615234375
 20
27645.166015625
 30
0.0
 11
82301.31225585941
 21
27693.6401367188
 31
0.0
  0
LINE
  5
D9
330
1E
100
AcDbEntity
  8
LAY0_0
  6
Continuous
 62
     0
100
AcDbLine
 10
81838.5986328125
 20
27793.88427734379
 30
0.0
 11
81889.3371582031
 21
27745.4162597656
 31
0.0
  0
LINE
  5
DA
330
1E
100
AcDbEntity
  8
LAY0_0
  6
Continuous
 62
     0
100
AcDbLine
 10
83121.32568359379
 20
27645.166015625
 30
0.0
 11
83070.58715820309
 21
27693.6401367188
 31
0.0
  0
LINE
  5
DB
330
1E
100
AcDbEntity
  8
LAY0_0
  6
Continuous
 62
     0
100
AcDbLine
 10
83121.32568359379
 20
27793.88427734379
 30
0.0
 11
83070.58715820309
 21
27745.4040527344
 31
0.0
  0
LINE
  5
DC
330
1E
100
AcDbEntity
  8
LAY0_0
  6
Continuous
 62
     0
100
AcDbLine
 10
82301.31225585941
 20
27693.6401367188
 30
0.0
 11
82665.1306152344
 21
27693.6401367188
 31
0.0
  0
LINE
  5
DD
330
1E
100
AcDbEntity
  8
LAY0_0
  6
Continuous
 62
     0
100
AcDbLine
 10
82766.62597656249
 20
27693.6401367188
 30
0.0
 11
83070.58715820309
 21
27693.6401367188
 31
0.0
  0
LINE
  5
DE
330
1E
100
AcDbEntity
  8
LAY0_0
  6
Continuous
 62
     0
100
AcDbLine
 10
83121.32568359379
 20
27793.88427734379
 30
0.0
 11
83121.32568359379
 21
27832.7819824219
 31
0.0
  0
LINE
  5
DF
330
1E
100
AcDbEntity
  8
LAY0_0
  6
Continuous
 62
     0
100
AcDbLine
 10
81838.5986328125
 20
27645.166015625
 30
0.0
 11
81889.3371582031
 21
27693.6401367188
 31
0.0
  0
LINE
  5
E0
330
1E
100
AcDbEntity
  8
LAY0_0
  6
Continuous
 62
     0
100
AcDbLine
 10
83070.58715820309
 20
27693.6401367188
 30
0.0
 11
83070.58715820309
 21
27745.4040527344
 31
0.0
  0
LINE
  5
E1
330
1E
100
AcDbEntity
  8
LAY0_0
  6
Continuous
 62
     0
100
AcDbLine
 10
83121.32568359379
 20
27832.7819824219
 30
0.0
 11
83070.58715820309
 21
27881.25610351559
 31
0.0
  0
LINE
  5
E2
330
1E
100
AcDbEntity
  8
LAY0_0
  6
Continuous
 62
     0
100
AcDbLine
 10
53163.6962890625
 20
45937.1826171875
 30
0.0
 11
87699.29199218751
 21
45937.1826171875
 31
0.0
  0
LINE
  5
E3
330
1E
100
AcDbEntity
  8
LAY0_0
  6
Continuous
 62
     0
100
AcDbLine
 10
49133.88671875
 20
51841.9494628906
 30
0.0
 11
49133.88671875
 21
51127.6550292969
 31
0.0
  0
LINE
  5
E5
330
1E
100
AcDbEntity
  8
LAY0_0
  6
Continuous
 62
     0
100
AcDbLine
 10
48820.5383300781
 20
51841.9494628906
 30
0.0
 11
48820.5383300781
 21
53351.7395019531
 31
0.0
  0
LINE
  5
E6
330
1E
100
AcDbEntity
  8
LAY0_0
  6
Continuous
 62
     0
100
AcDbLine
 10
47944.6960449219
 20
51841.9494628906
 30
0.0
 11
47944.6960449219
 21
51127.6550292969
 31
0.0
  0
LINE
  5
E7
330
1E
100
AcDbEntity
  8
LAY0_0
  6
Continuous
 62
     0
100
AcDbLine
 10
59730.126953125
 20
55699.09057617191
 30
0.0
 11
59653.60570827143
 21
54661.94555584534
 31
0.0
  0
LINE
  5
E8
330
1E
100
AcDbEntity
  8
LAY0_0
  6
Continuous
 62
     0
100
AcDbLine
 10
59781.8298339844
 20
51127.6550292969
 30
0.0
 11
59781.8298339844
 21
54066.0339355469
 31
0.0
  0
LINE
  5
E9
330
1E
100
AcDbEntity
  8
LAY0_0
  6
Continuous
 62
     0
100
AcDbLine
 10
47476.2329101563
 20
51841.9494628906
 30
0.0
 11
60453.9794921875
 21
51841.9494628906
 31
0.0
  0
LINE
  5
EA
330
1E
100
AcDbEntity
  8
LAY0_0
  6
Continuous
 62
     0
100
AcDbLine
 10
53008.5815429688
 20
55222.8942871094
 30
0.0
 11
53008.5815429688
 21
54984.80834960941
 31
0.0
  0
LINE
  5
EB
330
1E
100
AcDbEntity
  8
LAY0_0
  6
Continuous
 62
     0
100
AcDbLine
 10
59631.58663932435
 20
54363.47107419108
 30
0.0
 11
59114.4165039063
 21
53351.7395019531
 31
0.0
  0
LINE
  5
ED
330
1E
100
AcDbEntity
  8
LAY0_0
  6
Continuous
 62
     0
100
AcDbLine
 10
53008.5815429688
 20
55080.0415039063
 30
0.0
 11
54818.2250976563
 21
55080.0415039063
 31
0.0
  0
LINE
  5
EE
330
1E
100
AcDbEntity
  8
LAY0_0
  6
Continuous
 62
     0
100
AcDbLine
 10
47476.2329101563
 20
51484.8083496094
 30
0.0
 11
50113.1500244141
 21
51484.8083496094
 31
0.0
  0
LINE
  5
EF
330
1E
100
AcDbEntity
  8
LAY0_0
  6
Continuous
 62
     0
100
AcDbLine
 10
60971.02050781249
 20
48651.4770507813
 30
0.0
 11
79532.82470703129
 21
48651.4770507813
 31
0.0
  0
LINE
  5
F1
330
1E
100
AcDbEntity
  8
LAY0_0
  6
Continuous
 62
     0
100
AcDbLine
 10
52179.4921875
 20
52749.17602539059
 30
0.0
 11
52179.4921875
 21
52080.3283691406
 31
0.0
  0
LINE
  5
F2
330
1E
100
AcDbEntity
  8
LAY0_0
  6
Continuous
 62
     0
100
AcDbLine
 10
56721.5393066406
 20
50603.8513183594
 30
0.0
 11
55724.7436523438
 21
50603.8513183594
 31
0.0
  0
LINE
  5
F3
330
1E
100
AcDbEntity
  8
LAY0_0
  6
Continuous
 62
     0
100
AcDbLine
 10
58720.7946777344
 20
49689.0686035156
 30
0.0
 11
58554.39453125
 21
49689.0686035156
 31
0.0
  0
LINE
  5
F4
330
1E
100
AcDbEntity
  8
LAY0_0
  6
Continuous
 62
     0
100
AcDbLine
 10
55724.7436523438
 20
50603.8513183594
 30
0.0
 11
55724.7436523438
 21
50077.5756835938
 31
0.0
  0
LINE
  5
F5
330
1E
100
AcDbEntity
  8
LAY0_0
  6
Continuous
 62
     0
100
AcDbLine
 10
56223.14453125
 20
50077.5756835938
 30
0.0
 11
56223.14453125
 21
50603.8513183594
 31
0.0
  0
LINE
  5
F6
330
1E
100
AcDbEntity
  8
LAY0_0
  6
Continuous
 62
     0
100
AcDbLine
 10
48200.0915527344
 20
53351.7395019531
 30
0.0
 11
48200.0915527344
 21
51841.9494628906
 31
0.0
  0
LINE
  5
F7
330
1E
100
AcDbEntity
  8
LAY0_0
  6
Continuous
 62
     0
100
AcDbLine
 10
60505.6884765625
 20
49460.99853515629
 30
0.0
 11
60816.748046875
 21
49460.99853515629
 31
0.0
  0
LINE
  5
F8
330
1E
100
AcDbEntity
  8
LAY0_0
  6
Continuous
 62
     0
100
AcDbLine
 10
51199.3347167969
 20
52749.17602539059
 30
0.0
 11
52179.4921875
 21
52749.17602539059
 31
0.0
  0
LINE
  5
F9
330
1E
100
AcDbEntity
  8
LAY0_0
  6
Continuous
 62
     0
100
AcDbLine
 10
60505.6884765625
 20
48889.5690917969
 30
0.0
 11
60505.6884765625
 21
49460.99853515629
 31
0.0
  0
LINE
  5
FA
330
1E
100
AcDbEntity
  8
LAY0_0
  6
Continuous
 62
     0
100
AcDbLine
 10
52212.2619628906
 20
50464.48364257809
 30
0.0
 11
52691.2902832031
 21
50464.48364257809
 31
0.0
  0
LINE
  5
FB
330
1E
100
AcDbEntity
  8
LAY0_0
  6
Continuous
 62
     0
100
AcDbLine
 10
51198.9349365234
 20
51841.9494628906
 30
0.0
 11
51198.9349365234
 21
51127.6550292969
 31
0.0
  0
LINE
  5
FC
330
1E
100
AcDbEntity
  8
LAY0_0
  6
Continuous
 62
     0
100
AcDbLine
 10
59570.8374023438
 20
50034.11254882809
 30
0.0
 11
60028.2104492188
 21
50034.11254882809
 31
0.0
  0
LINE
  5
FD
330
1E
100
AcDbEntity
  8
LAY0_0
  6
Continuous
 62
     0
100
AcDbLine
 10
48200.0915527344
 20
52413.37890625
 30
0.0
 11
48820.5383300781
 21
52413.37890625
 31
0.0
  0
LINE
  5
FE
330
1E
100
AcDbEntity
  8
LAY0_0
  6
Continuous
 62
     0
100
AcDbLine
 10
60028.2104492188
 20
48889.5690917969
 30
0.0
 11
60028.2104492188
 21
50889.5629882813
 31
0.0
  0
LINE
  5
FF
330
1E
100
AcDbEntity
  8
LAY0_0
  6
Continuous
 62
     0
100
AcDbLine
 10
55724.7436523438
 20
50077.5756835938
 30
0.0
 11
56721.5393066406
 21
50077.5756835938
 31
0.0
  0
LINE
  5
100
330
1E
100
AcDbEntity
  8
LAY0_0
  6
Continuous
 62
     0
100
AcDbLine
 10
52691.2902832031
 20
50178.5400390625
 30
0.0
 11
52212.2619628906
 21
50178.5400390625
 31
0.0
  0
LINE
  5
101
330
1E
100
AcDbEntity
  8
LAY0_0
  6
Continuous
 62
     0
100
AcDbLine
 10
60453.9794921875
 20
50889.5629882813
 30
0.0
 11
60453.9794921875
 21
51127.6550292969
 31
0.0
  0
LINE
  5
102
330
1E
100
AcDbEntity
  8
LAY0_0
  6
Continuous
 62
     0
100
AcDbLine
 10
50113.1500244141
 20
51841.9494628906
 30
0.0
 11
50113.1500244141
 21
51127.6550292969
 31
0.0
  0
LINE
  5
103
330
1E
100
AcDbEntity
  8
LAY0_0
  6
CENTER
 62
     0
 48
1000.0
100
AcDbLine
 10
67640.869140625
 20
48651.4770507813
 30
0.0
 11
67640.869140625
 21
45937.1826171875
 31
0.0
  0
LINE
  5
104
330
1E
100
AcDbEntity
  8
LAY0_0
  6
Continuous
 62
     0
100
AcDbLine
 10
50463.0401611328
 20
57786.80419921879
 30
0.0
 11
50624.63073730469
 21
57786.80419921879
 31
0.0
  0
LINE
  5
105
330
1E
100
AcDbEntity
  8
LAY0_0
  6
Continuous
 62
     0
100
AcDbLine
 10
53094.41528320309
 20
57198.7487792969
 30
0.0
 11
53172.1862792969
 21
57198.7487792969
 31
0.0
  0
LINE
  5
106
330
1E
100
AcDbEntity
  8
LAY0_0
  6
Continuous
 62
     0
100
AcDbLine
 10
53163.6962890625
 20
51484.8083496094
 30
0.0
 11
54146.06933593749
 21
51484.8083496094
 31
0.0
  0
LINE
  5
107
330
1E
100
AcDbEntity
  8
LAY0_0
  6
Continuous
 62
     0
100
AcDbLine
 10
58075.5920410156
 20
51841.9494628906
 30
0.0
 11
58075.5920410156
 21
51127.6550292969
 31
0.0
  0
LINE
  5
108
330
1E
100
AcDbEntity
  8
LAY0_0
  6
Continuous
 62
     0
100
AcDbLine
 10
59407.7514648438
 20
50748.40087890629
 30
0.0
 11
60028.2104492188
 21
50748.40087890629
 31
0.0
  0
LINE
  5
109
330
1E
100
AcDbEntity
  8
LAY0_0
  6
Continuous
 62
     0
100
AcDbLine
 10
50509.20104980469
 20
57901.39770507809
 30
0.0
 11
50586.97814941409
 21
57901.39770507809
 31
0.0
  0
LINE
  5
10A
330
1E
100
AcDbEntity
  8
LAY0_0
  6
Continuous
 62
     0
100
AcDbLine
 10
52775.7568359375
 20
49365.5151367188
 30
0.0
 11
52775.7568359375
 21
50565.14282226559
 31
0.0
  0
LINE
  5
10B
330
1E
100
AcDbEntity
  8
LAY0_0
  6
Continuous
 62
     0
100
AcDbLine
 10
53094.41528320309
 20
56448.3825683594
 30
0.0
 11
53172.1862792969
 21
56448.3825683594
 31
0.0
  0
LINE
  5
10C
330
1E
100
AcDbEntity
  8
LAY0_0
  6
Continuous
 62
     0
100
AcDbLine
 10
50509.20104980469
 20
57786.80419921879
 30
0.0
 11
50509.20104980469
 21
57901.39770507809
 31
0.0
  0
LINE
  5
10D
330
1E
100
AcDbEntity
  8
LAY0_0
  6
Continuous
 62
     0
100
AcDbLine
 10
50586.97814941409
 20
56841.4245605469
 30
0.0
 11
50586.97814941409
 21
56726.83715820309
 31
0.0
  0
LINE
  5
10E
330
1E
100
AcDbEntity
  8
LAY0_0
  6
Continuous
 62
     0
100
AcDbLine
 10
47476.2329101563
 20
51841.9494628906
 30
0.0
 11
51198.9349365234
 21
51841.9494628906
 31
0.0
  0
LINE
  5
10F
330
1E
100
AcDbEntity
  8
LAY0_0
  6
Continuous
 62
     0
100
AcDbLine
 10
77727.50854492191
 20
57626.78833007809
 30
0.0
 11
77653.61938476559
 21
57743.41430664059
 31
0.0
  0
LINE
  5
110
330
1E
100
AcDbEntity
  8
LAY0_0
  6
Continuous
 62
     0
100
AcDbLine
 10
54714.8193359375
 20
50077.5756835938
 30
0.0
 11
54714.8193359375
 21
50603.8513183594
 31
0.0
  0
LINE
  5
111
330
1E
100
AcDbEntity
  8
LAY0_0
  6
Continuous
 62
     0
100
AcDbLine
 10
86876.0192871094
 20
49699.3835449219
 30
0.0
 11
86876.0192871094
 21
49318.1335449219
 31
0.0
  0
LINE
  5
112
330
1E
100
AcDbEntity
  8
LAY0_0
  6
Continuous
 62
     0
100
AcDbLine
 10
54714.8193359375
 20
50603.8513183594
 30
0.0
 11
53718.017578125
 21
50603.8513183594
 31
0.0
  0
LINE
  5
113
330
1E
100
AcDbEntity
  8
LAY0_0
  6
Continuous
 62
     0
100
AcDbLine
 10
48200.0915527344
 20
52651.47094726559
 30
0.0
 11
48820.5383300781
 21
52651.47094726559
 31
0.0
  0
LINE
  5
114
330
1E
100
AcDbEntity
  8
LAY0_0
  6
Continuous
 62
     0
100
AcDbLine
 10
53262.8173828125
 20
52749.17602539059
 30
0.0
 11
54242.9809570313
 21
52749.17602539059
 31
0.0
  0
LINE
  5
115
330
1E
100
AcDbEntity
  8
LAY0_0
  6
Continuous
 62
     0
100
AcDbLine
 10
60092.0532226563
 20
52032.42187499999
 30
0.0
 11
59988.6474609375
 21
55699.09057617191
 31
0.0
  0
LINE
  5
116
330
1E
100
AcDbEntity
  8
LAY0_0
  6
Continuous
 62
     0
100
AcDbLine
 10
53262.8173828125
 20
52080.3283691406
 30
0.0
 11
53262.8173828125
 21
52749.17602539059
 31
0.0
  0
LINE
  5
117
330
1E
100
AcDbEntity
  8
LAY0_0
  6
Continuous
 62
     0
100
AcDbLine
 10
56067.919921875
 20
52789.7705078125
 30
0.0
 11
56067.919921875
 21
52503.81469726559
 31
0.0
  0
LINE
  5
118
330
1E
100
AcDbEntity
  8
LAY0_0
  6
Continuous
 62
     0
100
AcDbLine
 10
51689.4165039063
 20
52080.3283691406
 30
0.0
 11
51689.4165039063
 21
52749.17602539059
 31
0.0
  0
LINE
  5
119
330
1E
100
AcDbEntity
  8
LAY0_0
  6
Continuous
 62
     0
100
AcDbLine
 10
57697.21069335941
 20
52080.3283691406
 30
0.0
 11
57697.21069335941
 21
52749.17602539059
 31
0.0
  0
LINE
  5
11A
330
1E
100
AcDbEntity
  8
LAY0_0
  6
Continuous
 62
     0
100
AcDbLine
 10
48200.0915527344
 20
53351.7395019531
 30
0.0
 11
48200.0915527344
 21
54066.0339355469
 31
0.0
  0
LINE
  5
11C
330
1E
100
AcDbEntity
  8
LAY0_0
  6
Continuous
 62
     0
100
AcDbLine
 10
57207.12890625
 20
52080.3283691406
 30
0.0
 11
57207.12890625
 21
52749.17602539059
 31
0.0
  0
LINE
  5
11D
330
1E
100
AcDbEntity
  8
LAY0_0
  6
Continuous
 62
     0
100
AcDbLine
 10
57093.212890625
 20
51841.9494628906
 30
0.0
 11
57093.212890625
 21
51127.6550292969
 31
0.0
  0
LINE
  5
11E
330
1E
100
AcDbEntity
  8
LAY0_0
  6
Continuous
 62
     0
100
AcDbLine
 10
57093.212890625
 20
51484.8083496094
 30
0.0
 11
58075.5920410156
 21
51484.8083496094
 31
0.0
  0
LINE
  5
11F
330
1E
100
AcDbEntity
  8
LAY0_0
  6
Continuous
 62
     0
100
AcDbLine
 10
58187.2863769531
 20
52749.17602539059
 30
0.0
 11
58187.2863769531
 21
52080.3283691406
 31
0.0
  0
LINE
  5
120
330
1E
100
AcDbEntity
  8
LAY0_0
  6
Continuous
 62
     0
100
AcDbLine
 10
51199.3347167969
 20
52080.3283691406
 30
0.0
 11
51199.3347167969
 21
52749.17602539059
 31
0.0
  0
LINE
  5
121
330
1E
100
AcDbEntity
  8
LAY0_0
  6
Continuous
 62
     0
100
AcDbLine
 10
45925.10375976559
 20
48889.5690917969
 30
0.0
 11
60919.3237304688
 21
48889.5690917969
 31
0.0
  0
LINE
  5
122
330
1E
100
AcDbEntity
  8
LAY0_0
  6
Continuous
 62
     0
100
AcDbLine
 10
47269.8425292969
 20
49206.0119628906
 30
0.0
 11
47269.8425292969
 21
48889.5690917969
 31
0.0
  0
LINE
  5
123
330
1E
100
AcDbEntity
  8
LAY0_0
  6
Continuous
 62
     0
100
AcDbLine
 10
54242.9809570313
 20
52749.17602539059
 30
0.0
 11
54242.9809570313
 21
52080.3283691406
 31
0.0
  0
LINE
  5
124
330
1E
100
AcDbEntity
  8
LAY0_0
  6
Continuous
 62
     0
100
AcDbLine
 10
55588.8916015625
 20
52789.7705078125
 30
0.0
 11
56067.919921875
 21
52789.7705078125
 31
0.0
  0
LINE
  5
125
330
1E
100
AcDbEntity
  8
LAY0_0
  6
Continuous
 62
     0
100
AcDbLine
 10
59902.3559570313
 20
48889.5690917969
 30
0.0
 11
59902.3559570313
 21
49689.0686035156
 31
0.0
  0
LINE
  5
126
330
1E
100
AcDbEntity
  8
LAY0_0
  6
Continuous
 62
     0
100
AcDbLine
 10
59896.85668945309
 20
26475.0793457031
 30
0.0
 11
59846.1120605469
 21
26426.611328125
 31
0.0
  0
LINE
  5
127
330
1E
100
AcDbEntity
  8
LAY0_0
  6
Continuous
 62
     0
100
AcDbLine
 10
59846.1120605469
 20
26374.84130859379
 30
0.0
 11
59846.1120605469
 21
26426.611328125
 31
0.0
  0
LINE
  5
128
330
1E
100
AcDbEntity
  8
LAY0_0
  6
Continuous
 62
     0
100
AcDbLine
 10
59896.85668945309
 20
26127.734375
 30
0.0
 11
59896.85668945309
 21
26326.3671875
 31
0.0
  0
LINE
  5
129
330
1E
100
AcDbEntity
  8
LAY0_0
  6
Continuous
 62
     0
100
AcDbLine
 10
59896.85668945309
 20
26326.3671875
 30
0.0
 11
59846.1120605469
 21
26374.84130859379
 31
0.0
  0
LINE
  5
12A
330
1E
100
AcDbEntity
  8
LAY0_0
  6
Continuous
 62
     0
100
AcDbLine
 10
59479.5593261719
 20
26475.0793457031
 30
0.0
 11
59479.5593261719
 21
26979.2419433594
 31
0.0
  0
LINE
  5
12B
330
1E
100
AcDbEntity
  8
LAY0_0
  6
Continuous
 62
     0
100
AcDbLine
 10
58599.6459960938
 20
26426.611328125
 30
0.0
 11
58963.50708007809
 21
26426.611328125
 31
0.0
  0
LINE
  5
12C
330
1E
100
AcDbEntity
  8
LAY0_0
  6
Continuous
 62
     0
100
AcDbLine
 10
59479.5593261719
 20
26475.0793457031
 30
0.0
 11
59530.30395507809
 21
26426.611328125
 31
0.0
  0
LINE
  5
12D
330
1E
100
AcDbEntity
  8
LAY0_0
  6
Continuous
 62
     0
100
AcDbLine
 10
59428.80859375
 20
26426.611328125
 30
0.0
 11
59479.5593261719
 21
26475.0793457031
 31
0.0
  0
LINE
  5
12E
330
1E
100
AcDbEntity
  8
LAY0_0
  6
Continuous
 62
     0
100
AcDbLine
 10
59808.9538574219
 20
26042.1691894531
 30
0.0
 11
58631.6223144531
 21
26042.1691894531
 31
0.0
  0
LINE
  5
12F
330
1E
100
AcDbEntity
  8
LAY0_0
  6
Continuous
 62
     0
100
AcDbLine
 10
58548.8891601563
 20
26122.705078125
 30
0.0
 11
58631.6223144531
 21
26042.1691894531
 31
0.0
  0
LINE
  5
130
330
1E
100
AcDbEntity
  8
LAY0_0
  6
Continuous
 62
     0
100
AcDbLine
 10
58548.8891601563
 20
26326.3610839844
 30
0.0
 11
58599.6459960938
 21
26374.84130859379
 31
0.0
  0
LINE
  5
131
330
1E
100
AcDbEntity
  8
LAY0_0
  6
Continuous
 62
     0
100
AcDbLine
 10
82221.4477539063
 20
26599.4567871094
 30
0.0
 11
82221.4477539063
 21
26861.94458007809
 31
0.0
  0
LINE
  5
132
330
1E
100
AcDbEntity
  8
LAY0_0
  6
Continuous
 62
     0
100
AcDbLine
 10
82273.14453125
 20
26549.12109375
 30
0.0
 11
82686.7858886719
 21
26549.12109375
 31
0.0
  0
LINE
  5
133
330
1E
100
AcDbEntity
  8
LAY0_0
  6
Continuous
 62
     0
100
AcDbLine
 10
59014.2456054688
 20
26475.0793457031
 30
0.0
 11
59014.2456054688
 21
26979.2419433594
 31
0.0
  0
LINE
  5
134
330
1E
100
AcDbEntity
  8
LAY0_0
  6
Continuous
 62
     0
100
AcDbLine
 10
59014.2456054688
 20
26475.0793457031
 30
0.0
 11
59065.0024414063
 21
26426.611328125
 31
0.0
  0
LINE
  5
135
330
1E
100
AcDbEntity
  8
LAY0_0
  6
Continuous
 62
     0
100
AcDbLine
 10
58548.8891601563
 20
26122.705078125
 30
0.0
 11
58548.8891601563
 21
26326.3610839844
 31
0.0
  0
LINE
  5
136
330
1E
100
AcDbEntity
  8
LAY0_0
  6
Continuous
 62
     0
100
AcDbLine
 10
58548.8891601563
 20
26475.0793457031
 30
0.0
 11
58548.8891601563
 21
26979.2419433594
 31
0.0
  0
LINE
  5
137
330
1E
100
AcDbEntity
  8
LAY0_0
  6
Continuous
 62
     0
100
AcDbLine
 10
48665.4418945313
 20
30701.3732910156
 30
0.0
 11
48665.43579101559
 21
27460.08300781249
 31
0.0
  0
LINE
  5
138
330
1E
100
AcDbEntity
  8
LAY0_0
  6
Continuous
 62
     0
100
AcDbLine
 10
59064.990234375
 20
27027.72216796879
 30
0.0
 11
59428.80859375
 21
27027.72216796879
 31
0.0
  0
LINE
  5
139
330
1E
100
AcDbEntity
  8
LAY0_0
  6
Continuous
 62
     0
100
AcDbLine
 10
57177.3864746094
 20
39992.724609375
 30
0.0
 11
58696.0388183594
 21
38865.2099609375
 31
0.0
  0
LINE
  5
13A
330
1E
100
AcDbEntity
  8
LAY0_0
  6
Continuous
 62
     0
100
AcDbLine
 10
58696.0388183594
 20
36751.416015625
 30
0.0
 11
58696.0388183594
 21
38865.2099609375
 31
0.0
  0
LINE
  5
13B
330
1E
100
AcDbEntity
  8
LAY0_0
  6
Continuous
 62
     0
100
AcDbLine
 10
59846.1120605469
 20
27027.72216796879
 30
0.0
 11
59846.1120605469
 21
27079.4860839844
 31
0.0
  0
LINE
  5
13C
330
1E
100
AcDbEntity
  8
LAY0_0
  6
Continuous
 62
     0
100
AcDbLine
 10
59896.85668945309
 20
27127.96630859379
 30
0.0
 11
59846.1120605469
 21
27079.4860839844
 31
0.0
  0
LINE
  5
13D
330
1E
100
AcDbEntity
  8
LAY0_0
  6
Continuous
 62
     0
100
AcDbLine
 10
59428.80859375
 20
27027.72216796879
 30
0.0
 11
59479.5593261719
 21
26979.2419433594
 31
0.0
  0
LINE
  5
13E
330
1E
100
AcDbEntity
  8
LAY0_0
  6
Continuous
 62
     0
100
AcDbLine
 10
59479.5593261719
 20
26979.2419433594
 30
0.0
 11
59530.30395507809
 21
27027.72216796879
 31
0.0
  0
LINE
  5
13F
330
1E
100
AcDbEntity
  8
LAY0_0
  6
Continuous
 62
     0
100
AcDbLine
 10
58696.0388183594
 20
30701.3610839844
 30
0.0
 11
58696.044921875
 21
28587.5793457031
 31
0.0
  0
LINE
  5
140
330
1E
100
AcDbEntity
  8
LAY0_0
  6
Continuous
 62
     0
100
AcDbLine
 10
58599.6459960938
 20
26374.84130859379
 30
0.0
 11
58599.6459960938
 21
26426.611328125
 31
0.0
  0
LINE
  5
141
330
1E
100
AcDbEntity
  8
LAY0_0
  6
Continuous
 62
     0
100
AcDbLine
 10
59896.85668945309
 20
26127.734375
 30
0.0
 11
59808.9538574219
 21
26042.1691894531
 31
0.0
  0
LINE
  5
142
330
1E
100
AcDbEntity
  8
LAY0_0
  6
Continuous
 62
     0
100
AcDbLine
 10
58548.8891601563
 20
26475.0793457031
 30
0.0
 11
58599.6459960938
 21
26426.611328125
 31
0.0
  0
LINE
  5
143
330
1E
100
AcDbEntity
  8
LAY0_0
  6
Continuous
 62
     0
100
AcDbLine
 10
59896.85668945309
 20
26475.0793457031
 30
0.0
 11
59896.85668945309
 21
26979.2419433594
 31
0.0
  0
LINE
  5
144
330
1E
100
AcDbEntity
  8
LAY0_0
  6
Continuous
 62
     0
100
AcDbLine
 10
59530.30395507809
 20
26426.611328125
 30
0.0
 11
59846.1120605469
 21
26426.611328125
 31
0.0
  0
LINE
  5
145
330
1E
100
AcDbEntity
  8
LAY0_0
  6
Continuous
 62
     0
100
AcDbLine
 10
57177.392578125
 20
27460.05859375
 30
0.0
 11
58696.044921875
 21
28587.5793457031
 31
0.0
  0
LINE
  5
146
330
1E
100
AcDbEntity
  8
LAY0_0
  6
Continuous
 62
     0
100
AcDbLine
 10
58963.50708007809
 20
26426.611328125
 30
0.0
 11
59014.2456054688
 21
26475.0793457031
 31
0.0
  0
LINE
  5
147
330
1E
100
AcDbEntity
  8
LAY0_0
  6
Continuous
 62
     0
100
AcDbLine
 10
59065.0024414063
 20
26426.611328125
 30
0.0
 11
59428.80859375
 21
26426.611328125
 31
0.0
  0
LINE
  5
148
330
1E
100
AcDbEntity
  8
LAY0_0
  6
Continuous
 62
     0
100
AcDbLine
 10
81296.72851562499
 20
25726.42822265629
 30
0.0
 11
81296.72851562499
 21
26116.44287109379
 31
0.0
  0
LINE
  5
149
330
1E
100
AcDbEntity
  8
LAY0_0
  6
Continuous
 62
     0
100
AcDbLine
 10
80679.60205078129
 20
25726.42822265629
 30
0.0
 11
80679.60205078129
 21
41726.3793945313
 31
0.0
  0
LINE
  5
14A
330
1E
100
AcDbEntity
  8
LAY0_0
  6
Continuous
 62
     0
100
AcDbLine
 10
80679.60205078129
 20
26116.44287109379
 30
0.0
 11
80679.60205078129
 21
25726.42822265629
 31
0.0
  0
LINE
  5
14B
330
1E
100
AcDbEntity
  8
LAY0_0
  6
Continuous
 62
     0
100
AcDbLine
 10
81296.72851562499
 20
26116.44287109379
 30
0.0
 11
80679.60205078129
 21
26116.44287109379
 31
0.0
  0
LINE
  5
14C
330
1E
100
AcDbEntity
  8
LAY0_0
  6
Continuous
 62
     0
100
AcDbLine
 10
45879.78515625
 20
26197.6989746094
 30
0.0
 11
45879.78515625
 21
27256.6162109375
 31
0.0
  0
LINE
  5
14D
330
1E
100
AcDbEntity
  8
LAY0_0
  6
Continuous
 62
     0
100
AcDbLine
 10
45925.1068115234
 20
26197.6989746094
 30
0.0
 11
45925.1068115234
 21
25926.42822265629
 31
0.0
  0
LINE
  5
14E
330
1E
100
AcDbEntity
  8
LAY0_0
  6
Continuous
 62
     0
100
AcDbLine
 10
46294.55261230469
 20
26197.6989746094
 30
0.0
 11
45879.78515625
 21
26197.6989746094
 31
0.0
  0
LINE
  5
14F
330
1E
100
AcDbEntity
  8
LAY0_0
  6
Continuous
 62
     0
100
AcDbLine
 10
46294.55261230469
 20
27256.6162109375
 30
0.0
 11
46294.55261230469
 21
26197.6989746094
 31
0.0
  0
LINE
  5
151
330
1E
100
AcDbEntity
  8
LAY0_0
  6
CENTER
 62
     0
100
AcDbLine
 10
85789.03198242191
 20
41726.42822265629
 30
0.0
 11
85789.03198242191
 21
25726.42822265629
 31
0.0
  0
LINE
  5
152
330
1E
100
AcDbEntity
  8
LAY0_0
  6
CENTER
 62
     0
100
AcDbLine
 10
55800.6042480469
 20
31011.8835449219
 30
0.0
 11
55800.6042480469
 21
25726.42822265629
 31
0.0
  0
LINE
  5
153
330
1E
100
AcDbEntity
  8
LAY0_0
  6
Continuous
 62
     0
100
AcDbLine
 10
58554.39453125
 20
48889.5690917969
 30
0.0
 11
58554.39453125
 21
49689.0686035156
 31
0.0
  0
LINE
  5
154
330
1E
100
AcDbEntity
  8
LAY0_0
  6
Continuous
 62
     0
100
AcDbLine
 10
86824.31640625001
 20
26116.44287109379
 30
0.0
 11
87918.2861328125
 21
26116.44287109379
 31
0.0
  0
LINE
  5
155
330
1E
100
AcDbEntity
  8
LAY0_0
  6
Continuous
 62
     0
100
AcDbLine
 10
47311.4318847656
 20
26116.44287109379
 30
0.0
 11
48340.46020507809
 21
26116.44287109379
 31
0.0
  0
LINE
  5
158
330
1E
100
AcDbEntity
  8
LAY0_0
  6
Continuous
 62
     0
100
AcDbLine
 10
47311.4318847656
 20
25726.42822265629
 30
0.0
 11
47311.4318847656
 21
26116.44287109379
 31
0.0
  0
LINE
  5
159
330
1E
100
AcDbEntity
  8
LAY0_0
  6
Continuous
 62
     0
100
AcDbLine
 10
87918.2861328125
 20
25726.42822265629
 30
0.0
 11
87918.2861328125
 21
26116.44287109379
 31
0.0
  0
LINE
  5
15A
330
1E
100
AcDbEntity
  8
LAY0_0
  6
Continuous
 62
     0
100
AcDbLine
 10
61879.60205078129
 20
25726.42822265629
 30
0.0
 11
61879.60205078129
 21
26116.44287109379
 31
0.0
  0
LINE
  5
15B
330
1E
100
AcDbEntity
  8
LAY0_0
  6
Continuous
 62
     0
100
AcDbLine
 10
48340.46020507809
 20
25726.42822265629
 30
0.0
 11
48340.46020507809
 21
26116.44287109379
 31
0.0
  0
LINE
  5
15C
330
1E
100
AcDbEntity
  8
LAY0_0
  6
Continuous
 62
     0
100
AcDbLine
 10
82221.4477539063
 20
26599.4567871094
 30
0.0
 11
82273.14453125
 21
26549.12109375
 31
0.0
  0
LINE
  5
15D
330
1E
100
AcDbEntity
  8
LAY0_0
  6
Continuous
 62
     0
100
AcDbLine
 10
82738.48876953129
 20
26599.4567871094
 30
0.0
 11
82738.48876953129
 21
26861.9323730469
 31
0.0
  0
LINE
  5
15E
330
1E
100
AcDbEntity
  8
LAY0_0
  6
Continuous
 62
     0
100
AcDbLine
 10
86824.31640625001
 20
25726.42822265629
 30
0.0
 11
86824.31640625001
 21
26116.44287109379
 31
0.0
  0
LINE
  5
15F
330
1E
100
AcDbEntity
  8
LAY0_0
  6
Continuous
 62
     0
100
AcDbLine
 10
82686.7858886719
 20
26549.12109375
 30
0.0
 11
82738.48876953129
 21
26599.4567871094
 31
0.0
  0
LINE
  5
160
330
1E
100
AcDbEntity
  8
LAY0_0
  6
Continuous
 62
     0
100
AcDbLine
 10
61879.60205078129
 20
26116.44287109379
 30
0.0
 11
61262.47558593749
 21
26116.44287109379
 31
0.0
  0
LINE
  5
161
330
1E
100
AcDbEntity
  8
LAY0_0
  6
Continuous
 62
     0
100
AcDbLine
 10
45670.0225830078
 20
26497.7478027344
 30
0.0
 11
45879.78515625
 21
26421.7590332031
 31
0.0
  0
LINE
  5
162
330
1E
100
AcDbEntity
  8
LAY0_0
  6
Continuous
 62
     0
100
AcDbLine
 10
45154.4860839844
 20
26197.6989746094
 30
0.0
 11
45154.4860839844
 21
26392.3034667969
 31
0.0
  0
LINE
  5
163
330
1E
100
AcDbEntity
  8
LAY0_0
  6
Continuous
 62
     0
100
AcDbLine
 10
45879.78515625
 20
26197.6989746094
 30
0.0
 11
45154.4860839844
 21
26197.6989746094
 31
0.0
  0
LINE
  5
164
330
1E
100
AcDbEntity
  8
LAY0_0
  6
Continuous
 62
     0
100
AcDbLine
 10
45670.0225830078
 20
26956.5612792969
 30
0.0
 11
45670.0225830078
 21
26497.7478027344
 31
0.0
  0
LINE
  5
165
330
1E
100
AcDbEntity
  8
LAY0_0
  6
Continuous
 62
     0
100
AcDbLine
 10
91394.8486328125
 20
28525.0671386719
 30
0.0
 11
90923.80371093749
 21
26611.4868164063
 31
0.0
  0
LINE
  5
166
330
1E
100
AcDbEntity
  8
LAY0_0
  6
Continuous
 62
     0
100
AcDbLine
 10
61262.47558593749
 20
26116.44287109379
 30
0.0
 11
61262.47558593749
 21
25726.42822265629
 31
0.0
  0
LINE
  5
167
330
1E
100
AcDbEntity
  8
LAY0_0
  6
Continuous
 62
     0
100
AcDbLine
 10
45154.4860839844
 20
26392.3034667969
 30
0.0
 11
45670.0225830078
 21
26497.7478027344
 31
0.0
  0
LINE
  5
168
330
1E
100
AcDbEntity
  8
LAY0_0
  6
Continuous
 62
     0
100
AcDbLine
 10
90923.80371093749
 20
26611.4868164063
 30
0.0
 11
90130.1574707031
 21
26796.6125488281
 31
0.0
  0
LINE
  5
169
330
1E
100
AcDbEntity
  8
LAY0_0
  6
Continuous
 62
     0
100
AcDbLine
 10
47746.4447021484
 20
36341.3513183594
 30
0.0
 11
46188.4826660156
 21
36341.3513183594
 31
0.0
  0
LINE
  5
16A
330
1E
100
AcDbEntity
  8
LAY0_0
  6
Continuous
 62
     0
100
AcDbLine
 10
47849.8504638672
 20
34985.05859375
 30
0.0
 11
47901.5594482422
 21
34934.73510742189
 31
0.0
  0
LINE
  5
16B
330
1E
100
AcDbEntity
  8
LAY0_0
  6
Continuous
 62
     0
100
AcDbLine
 10
50662.9211425781
 20
32936.3830566406
 30
0.0
 11
51508.88671875
 21
32936.3830566406
 31
0.0
  0
LINE
  5
16C
330
1E
100
AcDbEntity
  8
LAY0_0
  6
Continuous
 62
     0
100
AcDbLine
 10
48772.9583740234
 20
36240.6860351563
 30
0.0
 11
48772.9583740234
 21
34985.05859375
 31
0.0
  0
LINE
  5
16D
330
1E
100
AcDbEntity
  8
LAY0_0
  6
Continuous
 62
     0
100
AcDbLine
 10
48669.5495605469
 20
36341.3513183594
 30
0.0
 11
48772.9583740234
 21
36240.6860351563
 31
0.0
  0
LINE
  5
16E
330
1E
100
AcDbEntity
  8
LAY0_0
  6
Continuous
 62
     0
100
AcDbLine
 10
48772.9583740234
 20
36240.6860351563
 30
0.0
 11
48876.36413574219
 21
36341.3513183594
 31
0.0
  0
LINE
  5
16F
330
1E
100
AcDbEntity
  8
LAY0_0
  6
Continuous
 62
     0
100
AcDbLine
 10
47849.8504638672
 20
34985.05859375
 30
0.0
 11
47849.8504638672
 21
36240.6860351563
 31
0.0
  0
LINE
  5
170
330
1E
100
AcDbEntity
  8
LAY0_0
  6
Continuous
 62
     0
100
AcDbLine
 10
48721.25549316409
 20
34934.73510742189
 30
0.0
 11
47901.5594482422
 21
34934.73510742189
 31
0.0
  0
LINE
  5
171
330
1E
100
AcDbEntity
  8
LAY0_0
  6
Continuous
 62
     0
100
AcDbLine
 10
50662.9211425781
 20
32433.0810546875
 30
0.0
 11
51508.88671875
 21
32433.0810546875
 31
0.0
  0
LINE
  5
172
330
1E
100
AcDbEntity
  8
LAY0_0
  6
Continuous
 62
     0
100
AcDbLine
 10
53365.6066894531
 20
34607.36694335939
 30
0.0
 11
53210.498046875
 21
34456.37207031249
 31
0.0
  0
LINE
  5
173
330
1E
100
AcDbEntity
  8
LAY0_0
  6
Continuous
 62
     0
100
AcDbLine
 10
50662.9211425781
 20
34446.30737304689
 30
0.0
 11
50662.9211425781
 21
34949.60327148439
 31
0.0
  0
LINE
  5
174
330
1E
100
AcDbEntity
  8
LAY0_0
  6
Continuous
 62
     0
100
AcDbLine
 10
47953.26232910159
 20
36341.3513183594
 30
0.0
 11
48669.5495605469
 21
36341.3513183594
 31
0.0
  0
LINE
  5
175
330
1E
100
AcDbEntity
  8
LAY0_0
  6
Continuous
 62
     0
100
AcDbLine
 10
53210.498046875
 20
32926.318359375
 30
0.0
 11
53365.6066894531
 21
32775.3234863281
 31
0.0
  0
LINE
  5
176
330
1E
100
AcDbEntity
  8
LAY0_0
  6
Continuous
 62
     0
100
AcDbLine
 10
53365.6066894531
 20
34607.36694335939
 30
0.0
 11
55092.529296875
 21
34607.36694335939
 31
0.0
  0
LINE
  5
177
330
1E
100
AcDbEntity
  8
LAY0_0
  6
Continuous
 62
     0
100
AcDbLine
 10
51508.88671875
 20
34949.60327148439
 30
0.0
 11
50662.9211425781
 21
34949.60327148439
 31
0.0
  0
LINE
  5
178
330
1E
100
AcDbEntity
  8
LAY0_0
  6
Continuous
 62
     0
100
AcDbLine
 10
51508.88671875
 20
34446.30737304689
 30
0.0
 11
50662.9211425781
 21
34446.30737304689
 31
0.0
  0
LINE
  5
179
330
1E
100
AcDbEntity
  8
LAY0_0
  6
Continuous
 62
     0
100
AcDbLine
 10
53210.498046875
 20
32926.318359375
 30
0.0
 11
53210.498046875
 21
34456.37207031249
 31
0.0
  0
LINE
  5
17A
330
1E
100
AcDbEntity
  8
LAY0_0
  6
Continuous
 62
     0
100
AcDbLine
 10
54937.4145507813
 20
31980.1025390625
 30
0.0
 11
50059.18579101559
 21
31980.1025390625
 31
0.0
  0
LINE
  5
17B
330
1E
100
AcDbEntity
  8
LAY0_0
  6
Continuous
 62
     0
100
AcDbLine
 10
54937.4145507813
 20
35402.587890625
 30
0.0
 11
50059.18579101559
 21
35402.587890625
 31
0.0
  0
LINE
  5
17C
330
1E
100
AcDbEntity
  8
LAY0_0
  6
Continuous
 62
     0
100
AcDbLine
 10
55092.529296875
 20
35251.5930175781
 30
0.0
 11
55092.529296875
 21
32131.0974121094
 31
0.0
  0
LINE
  5
17D
330
1E
100
AcDbEntity
  8
LAY0_0
  6
Continuous
 62
     0
100
AcDbLine
 10
51508.88671875
 20
33198.1018066406
 30
0.0
 11
50455.3741455078
 21
33198.1018066406
 31
0.0
  0
LINE
  5
17E
330
1E
100
AcDbEntity
  8
LAY0_0
  6
Continuous
 62
     0
100
AcDbLine
 10
58696.0388183594
 20
30701.3610839844
 30
0.0
 11
48801.46484375
 21
30701.3732910156
 31
0.0
  0
LINE
  5
17F
330
1E
100
AcDbEntity
  8
LAY0_0
  6
Continuous
 62
     0
100
AcDbLine
 10
55963.6169433594
 20
36240.6860351563
 30
0.0
 11
56067.0288085938
 21
36341.3513183594
 31
0.0
  0
LINE
  5
180
330
1E
100
AcDbEntity
  8
LAY0_0
  6
Continuous
 62
     0
100
AcDbLine
 10
46444.99800266516
 20
36368.4448242188
 30
0.0
 11
57000.9887695313
 21
36368.4448242188
 31
0.0
  0
LINE
  5
181
330
1E
100
AcDbEntity
  8
LAY0_0
  6
Continuous
 62
     0
100
AcDbLine
 10
48665.43579101559
 20
27460.08300781249
 30
0.0
 11
57177.392578125
 21
27460.05859375
 31
0.0
  0
LINE
  5
182
330
1E
100
AcDbEntity
  8
LAY0_0
  6
Continuous
 62
     0
100
AcDbLine
 10
49904.0771484375
 20
32131.0974121094
 30
0.0
 11
49904.0771484375
 21
35251.5930175781
 31
0.0
  0
LINE
  5
183
330
1E
100
AcDbEntity
  8
LAY0_0
  6
Continuous
 62
     0
100
AcDbLine
 10
50455.3741455078
 20
34184.5764160156
 30
0.0
 11
50455.3741455078
 21
33198.1018066406
 31
0.0
  0
LINE
  5
184
330
1E
100
AcDbEntity
  8
LAY0_0
  6
Continuous
 62
     0
100
AcDbLine
 10
51508.88671875
 20
34184.5764160156
 30
0.0
 11
51508.88671875
 21
33198.1018066406
 31
0.0
  0
LINE
  5
185
330
1E
100
AcDbEntity
  8
LAY0_0
  6
Continuous
 62
     0
100
AcDbLine
 10
48721.25549316409
 20
34934.73510742189
 30
0.0
 11
48772.9583740234
 21
34985.05859375
 31
0.0
  0
LINE
  5
186
330
1E
100
AcDbEntity
  8
LAY0_0
  6
Continuous
 62
     0
100
AcDbLine
 10
49904.0771484375
 20
35251.5930175781
 30
0.0
 11
50059.18579101559
 21
35402.587890625
 31
0.0
  0
LINE
  5
187
330
1E
100
AcDbEntity
  8
LAY0_0
  6
Continuous
 62
     0
100
AcDbLine
 10
49904.0771484375
 20
32131.0974121094
 30
0.0
 11
50059.18579101559
 21
31980.1025390625
 31
0.0
  0
LINE
  5
188
330
1E
100
AcDbEntity
  8
LAY0_0
  6
Continuous
 62
     0
100
AcDbLine
 10
51508.88671875
 20
34184.5764160156
 30
0.0
 11
50455.3741455078
 21
34184.5764160156
 31
0.0
  0
LINE
  5
189
330
1E
100
AcDbEntity
  8
LAY0_0
  6
Continuous
 62
     0
100
AcDbLine
 10
54937.4145507813
 20
35402.587890625
 30
0.0
 11
55092.529296875
 21
35251.5930175781
 31
0.0
  0
LINE
  5
18A
330
1E
100
AcDbEntity
  8
LAY0_0
  6
Continuous
 62
     0
100
AcDbLine
 10
54937.4145507813
 20
31980.1025390625
 30
0.0
 11
55092.529296875
 21
32131.0974121094
 31
0.0
  0
LINE
  5
18B
330
1E
100
AcDbEntity
  8
LAY0_0
  6
Continuous
 62
     0
100
AcDbLine
 10
46294.55261230469
 20
40241.162109375
 30
0.0
 11
45879.78515625
 21
40241.162109375
 31
0.0
  0
LINE
  5
18C
330
1E
100
AcDbEntity
  8
LAY0_0
  6
Continuous
 62
     0
100
AcDbLine
 10
45154.4860839844
 20
40241.162109375
 30
0.0
 11
45154.4860839844
 21
40435.7666015625
 31
0.0
  0
LINE
  5
18D
330
1E
100
AcDbEntity
  8
LAY0_0
  6
Continuous
 62
     0
100
AcDbLine
 10
60901.6479492188
 20
39072.52807617189
 30
0.0
 11
60901.6479492188
 21
38027.7160644531
 31
0.0
  0
LINE
  5
18E
330
1E
100
AcDbEntity
  8
LAY0_0
  6
Continuous
 62
     0
100
AcDbLine
 10
60901.6479492188
 20
38027.7160644531
 30
0.0
 11
60024.7192382813
 21
38027.7160644531
 31
0.0
  0
LINE
  5
18F
330
1E
100
AcDbEntity
  8
LAY0_0
  6
Continuous
 62
     0
100
AcDbLine
 10
90130.1574707031
 20
26796.6125488281
 30
0.0
 11
90601.1962890625
 21
28710.19287109379
 31
0.0
  0
LINE
  5
190
330
1E
100
AcDbEntity
  8
LAY0_0
  6
Continuous
 62
     0
100
AcDbLine
 10
45154.4860839844
 20
27256.6162109375
 30
0.0
 11
45154.4860839844
 21
27062.0178222656
 31
0.0
  0
LINE
  5
191
330
1E
100
AcDbEntity
  8
LAY0_0
  6
Continuous
 62
     0
100
AcDbLine
 10
46294.55261230469
 20
41300.0854492188
 30
0.0
 11
46294.55261230469
 21
40241.162109375
 31
0.0
  0
LINE
  5
192
330
1E
100
AcDbEntity
  8
LAY0_0
  6
Continuous
 62
     0
100
AcDbLine
 10
45879.78515625
 20
41300.0854492188
 30
0.0
 11
46294.55261230469
 21
41300.0854492188
 31
0.0
  0
LINE
  5
193
330
1E
100
AcDbEntity
  8
LAY0_0
  6
Continuous
 62
     0
100
AcDbLine
 10
60024.7192382813
 20
39072.52807617189
 30
0.0
 11
60901.6479492188
 21
39072.52807617189
 31
0.0
  0
LINE
  5
194
330
1E
100
AcDbEntity
  8
LAY0_0
  6
Continuous
 62
     0
100
AcDbLine
 10
45154.4860839844
 20
41300.0854492188
 30
0.0
 11
45154.4860839844
 21
41105.4809570313
 31
0.0
  0
LINE
  5
195
330
1E
100
AcDbEntity
  8
LAY0_0
  6
Continuous
 62
     0
100
AcDbLine
 10
45670.0225830078
 20
41000.0366210938
 30
0.0
 11
45879.78515625
 21
41076.04370117189
 31
0.0
  0
LINE
  5
196
330
1E
100
AcDbEntity
  8
LAY0_0
  6
Continuous
 62
     0
100
AcDbLine
 10
47901.5594482422
 20
32447.94921875
 30
0.0
 11
48721.25549316409
 21
32447.94921875
 31
0.0
  0
LINE
  5
197
330
1E
100
AcDbEntity
  8
LAY0_0
  6
Continuous
 62
     0
100
AcDbLine
 10
47849.8504638672
 20
31141.9921875
 30
0.0
 11
47849.8504638672
 21
32397.6196289063
 31
0.0
  0
LINE
  5
198
330
1E
100
AcDbEntity
  8
LAY0_0
  6
Continuous
 62
     0
100
AcDbLine
 10
45154.4860839844
 20
41105.4809570313
 30
0.0
 11
45670.0225830078
 21
41000.0366210938
 31
0.0
  0
LINE
  5
199
330
1E
100
AcDbEntity
  8
LAY0_0
  6
Continuous
 62
     0
100
AcDbLine
 10
60024.7192382813
 20
38027.7160644531
 30
0.0
 11
60024.7192382813
 21
39072.52807617189
 31
0.0
  0
LINE
  5
19A
330
1E
100
AcDbEntity
  8
LAY0_0
  6
Continuous
 62
     0
100
AcDbLine
 10
45879.78515625
 20
40241.162109375
 30
0.0
 11
45154.4860839844
 21
40241.162109375
 31
0.0
  0
LINE
  5
19B
330
1E
100
AcDbEntity
  8
LAY0_0
  6
Continuous
 62
     0
100
AcDbLine
 10
45879.78515625
 20
40241.162109375
 30
0.0
 11
45879.78515625
 21
41300.0854492188
 31
0.0
  0
LINE
  5
19C
330
1E
100
AcDbEntity
  8
LAY0_0
  6
Continuous
 62
     0
100
AcDbLine
 10
45670.0225830078
 20
40541.2231445313
 30
0.0
 11
45879.78515625
 21
40465.2221679688
 31
0.0
  0
LINE
  5
19D
330
1E
100
AcDbEntity
  8
LAY0_0
  6
Continuous
 62
     0
100
AcDbLine
 10
45879.78515625
 20
27256.6162109375
 30
0.0
 11
46294.55261230469
 21
27256.6162109375
 31
0.0
  0
LINE
  5
19E
330
1E
100
AcDbEntity
  8
LAY0_0
  6
Continuous
 62
     0
100
AcDbLine
 10
45670.0225830078
 20
41000.0366210938
 30
0.0
 11
45670.0225830078
 21
40541.2231445313
 31
0.0
  0
LINE
  5
19F
330
1E
100
AcDbEntity
  8
LAY0_0
  6
Continuous
 62
     0
100
AcDbLine
 10
45879.78515625
 20
41300.0854492188
 30
0.0
 11
45154.4860839844
 21
41300.0854492188
 31
0.0
  0
LINE
  5
1A0
330
1E
100
AcDbEntity
  8
LAY0_0
  6
Continuous
 62
     0
100
AcDbLine
 10
51508.88671875
 20
32433.0810546875
 30
0.0
 11
51508.88671875
 21
32936.3830566406
 31
0.0
  0
LINE
  5
1A1
330
1E
100
AcDbEntity
  8
LAY0_0
  6
Continuous
 62
     0
100
AcDbLine
 10
50662.9211425781
 20
32433.0810546875
 30
0.0
 11
50662.9211425781
 21
32936.3830566406
 31
0.0
  0
LINE
  5
1A2
330
1E
100
AcDbEntity
  8
LAY0_0
  6
Continuous
 62
     0
100
AcDbLine
 10
45154.4860839844
 20
40435.7666015625
 30
0.0
 11
45670.0225830078
 21
40541.2231445313
 31
0.0
  0
LINE
  5
1A3
330
1E
100
AcDbEntity
  8
LAY0_0
  6
Continuous
 62
     0
100
AcDbLine
 10
51508.88671875
 20
34446.30737304689
 30
0.0
 11
51508.88671875
 21
34949.60327148439
 31
0.0
  0
LINE
  5
1A4
330
1E
100
AcDbEntity
  8
LAY0_0
  6
Continuous
 62
     0
100
AcDbLine
 10
45154.4860839844
 20
27062.0178222656
 30
0.0
 11
45670.0225830078
 21
26956.5612792969
 31
0.0
  0
LINE
  5
1A5
330
1E
100
AcDbEntity
  8
LAY0_0
  6
Continuous
 62
     0
100
AcDbLine
 10
91539.83154296881
 20
38696.0266113281
 30
0.0
 11
90759.99755859381
 21
38461.8286132813
 31
0.0
  0
LINE
  5
1A6
330
1E
100
AcDbEntity
  8
LAY0_0
  6
Continuous
 62
     0
100
AcDbLine
 10
90164.05639648439
 20
40342.12646484379
 30
0.0
 11
90943.90869140632
 21
40576.3244628906
 31
0.0
  0
LINE
  5
1A7
330
1E
100
AcDbEntity
  8
LAY0_0
  6
Continuous
 62
     0
100
AcDbLine
 10
90759.99755859381
 20
38461.8286132813
 30
0.0
 11
90164.05639648439
 21
40342.12646484379
 31
0.0
  0
LINE
  5
1A8
330
1E
100
AcDbEntity
  8
LAY0_0
  6
Continuous
 62
     0
100
AcDbLine
 10
45879.78515625
 20
27256.6162109375
 30
0.0
 11
45154.4860839844
 21
27256.6162109375
 31
0.0
  0
LINE
  5
1A9
330
1E
100
AcDbEntity
  8
LAY0_0
  6
Continuous
 62
     0
100
AcDbLine
 10
90601.1962890625
 20
28710.19287109379
 30
0.0
 11
91394.8486328125
 21
28525.0671386719
 31
0.0
  0
LINE
  5
1AA
330
1E
100
AcDbEntity
  8
LAY0_0
  6
Continuous
 62
     0
100
AcDbLine
 10
45670.0225830078
 20
26956.5612792969
 30
0.0
 11
45879.78515625
 21
27032.5622558594
 31
0.0
  0
LINE
  5
1AB
330
1E
100
AcDbEntity
  8
LAY0_0
  6
Continuous
 62
     0
100
AcDbLine
 10
90943.90869140632
 20
40576.3244628906
 30
0.0
 11
91539.83154296881
 21
38696.0266113281
 31
0.0
  0
LINE
  5
1AC
330
1E
100
AcDbEntity
  8
LAY0_0
  6
Continuous
 62
     0
100
AcDbLine
 10
45925.1068115234
 20
30514.25781249999
 30
0.0
 11
45925.1068115234
 21
27256.6162109375
 31
0.0
  0
LINE
  5
1AD
330
1E
100
AcDbEntity
  8
LAY0_0
  6
Continuous
 62
     0
100
AcDbLine
 10
55860.205078125
 20
36341.3513183594
 30
0.0
 11
55963.6169433594
 21
36240.6860351563
 31
0.0
  0
LINE
  5
1AE
330
1E
100
AcDbEntity
  8
LAY0_0
  6
DASHED2
 62
     0
100
AcDbLine
 10
88007.95288085939
 20
34417.62084960939
 30
0.0
 11
88059.6740722656
 21
34467.9443359375
 31
0.0
  0
LINE
  5
1AF
330
1E
100
AcDbEntity
  8
LAY0_0
  6
DASHED2
 62
     0
100
AcDbLine
 10
88059.6740722656
 20
35423.2238769531
 30
0.0
 11
88007.95288085939
 21
35473.5595703125
 31
0.0
  0
LINE
  5
1B0
330
1E
100
AcDbEntity
  8
LAY0_0
  6
Continuous
 62
     0
100
AcDbLine
 10
87307.0556640625
 20
34467.9443359375
 30
0.0
 11
87307.0556640625
 21
34876.3244628906
 31
0.0
  0
LINE
  5
1B1
330
1E
100
AcDbEntity
  8
LAY0_0
  6
DASHED2
 62
     0
100
AcDbLine
 10
87358.75244140629
 20
34417.62084960939
 30
0.0
 11
87307.0556640625
 21
34467.9443359375
 31
0.0
  0
LINE
  5
1B2
330
1E
100
AcDbEntity
  8
LAY0_0
  6
Continuous
 62
     0
100
AcDbLine
 10
82006.23779296879
 20
35448.3947753906
 30
0.0
 11
82006.23779296879
 21
34777.8625488281
 31
0.0
  0
LINE
  5
1B3
330
1E
100
AcDbEntity
  8
LAY0_0
  6
Continuous
 62
     0
100
AcDbLine
 10
82006.23779296879
 20
34777.8625488281
 30
0.0
 11
81137.5244140625
 21
34777.8625488281
 31
0.0
  0
LINE
  5
1B4
330
1E
100
AcDbEntity
  8
LAY0_0
  6
DASHED2
 62
     0
100
AcDbLine
 10
86918.2983398438
 20
35473.5595703125
 30
0.0
 11
86866.5832519531
 21
35423.2238769531
 31
0.0
  0
LINE
  5
1B5
330
1E
100
AcDbEntity
  8
LAY0_0
  6
Continuous
 62
     0
100
AcDbLine
 10
81137.5244140625
 20
35448.3947753906
 30
0.0
 11
82006.23779296879
 21
35448.3947753906
 31
0.0
  0
LINE
  5
1B6
330
1E
100
AcDbEntity
  8
LAY0_0
  6
Continuous
 62
     0
100
AcDbLine
 10
88007.95288085939
 20
35473.5595703125
 30
0.0
 11
86918.2983398438
 21
35473.5595703125
 31
0.0
  0
LINE
  5
1B7
330
1E
100
AcDbEntity
  8
LAY0_0
  6
Continuous
 62
     0
100
AcDbLine
 10
81296.72851562499
 20
41336.3647460938
 30
0.0
 11
81296.72851562501
 21
41726.42822265629
 31
0.0
  0
LINE
  5
1B8
330
1E
100
AcDbEntity
  8
LAY0_0
  6
Continuous
 62
     0
100
AcDbLine
 10
81296.72851562499
 20
41336.3647460938
 30
0.0
 11
80679.60205078129
 21
41336.3647460938
 31
0.0
  0
LINE
  5
1B9
330
1E
100
AcDbEntity
  8
LAY0_0
  6
Continuous
 62
     0
100
AcDbLine
 10
48340.46020507809
 20
41336.3586425781
 30
0.0
 11
48340.46020507809
 21
41726.42822265629
 31
0.0
  0
LINE
  5
1BA
330
1E
100
AcDbEntity
  8
LAY0_0
  6
Continuous
 62
     0
100
AcDbLine
 10
48665.43579101559
 20
39992.724609375
 30
0.0
 11
57177.3864746094
 21
39992.724609375
 31
0.0
  0
LINE
  5
1BB
330
1E
100
AcDbEntity
  8
LAY0_0
  6
Continuous
 62
     0
100
AcDbLine
 10
87307.0556640625
 20
34876.3244628906
 30
0.0
 11
86866.5832519531
 21
35081.9458007813
 31
0.0
  0
LINE
  5
1BC
330
1E
100
AcDbEntity
  8
LAY0_0
  6
Continuous
 62
     0
100
AcDbLine
 10
86866.5832519531
 20
35081.9458007813
 30
0.0
 11
86866.5832519531
 21
35423.2238769531
 31
0.0
  0
LINE
  5
1BD
330
1E
100
AcDbEntity
  8
LAY0_0
  6
Continuous
 62
     0
100
AcDbLine
 10
88059.6740722656
 20
35423.2238769531
 30
0.0
 11
88059.6740722656
 21
34467.9443359375
 31
0.0
  0
LINE
  5
1BE
330
1E
100
AcDbEntity
  8
LAY0_0
  6
Continuous
 62
     0
100
AcDbLine
 10
88007.95288085939
 20
34417.62084960939
 30
0.0
 11
87358.75244140629
 21
34417.62084960939
 31
0.0
  0
LINE
  5
1BF
330
1E
100
AcDbEntity
  8
LAY0_0
  6
Continuous
 62
     0
100
AcDbLine
 10
52221.61865234379
 20
30701.3732910156
 30
0.0
 11
52221.61865234379
 21
28247.3815917969
 31
0.0
  0
LINE
  5
1C0
330
1E
100
AcDbEntity
  8
LAY0_0
  6
Continuous
 62
     0
100
AcDbLine
 10
50716.7724609375
 20
28218.61572265629
 30
0.0
 11
50716.7724609375
 21
27460.0769042969
 31
0.0
  0
LINE
  5
1C1
330
1E
100
AcDbEntity
  8
LAY0_0
  6
Continuous
 62
     0
100
AcDbLine
 10
48665.43579101559
 20
36751.416015625
 30
0.0
 11
48665.43579101559
 21
39992.724609375
 31
0.0
  0
LINE
  5
1C2
330
1E
100
AcDbEntity
  8
LAY0_0
  6
DASHED2
 62
     0
 48
1000.0
100
AcDbLine
 10
91606.43920898438
 20
33691.3452148438
 30
0.0
 11
45288.47656249999
 21
33691.3452148438
 31
0.0
  0
LINE
  5
1C3
330
1E
100
AcDbEntity
  8
LAY0_0
  6
Continuous
 62
     0
100
AcDbLine
 10
89769.76318359382
 20
25726.42822265629
 30
0.0
 11
46124.6826171875
 21
25726.42822265629
 31
0.0
  0
LINE
  5
1C4
330
1E
100
AcDbEntity
  8
LAY0_0
  6
Continuous
 62
     0
100
AcDbLine
 10
58554.39453125
 20
41022.705078125
 30
0.0
 11
58554.39453125
 21
40518.5363769531
 31
0.0
  0
LINE
  5
1C5
330
1E
100
AcDbEntity
  8
LAY0_0
  6
Continuous
 62
     0
100
AcDbLine
 10
82221.4477539063
 20
40853.3264160156
 30
0.0
 11
82221.4477539063
 21
40590.8264160156
 31
0.0
  0
LINE
  5
1C6
330
1E
100
AcDbEntity
  8
LAY0_0
  6
CENTER
 62
     0
100
AcDbLine
 10
55800.60424804691
 20
41726.4282226563
 30
0.0
 11
55800.6042480469
 21
36368.4448242188
 31
0.0
  0
LINE
  5
1C7
330
1E
100
AcDbEntity
  8
LAY0_0
  6
Continuous
 62
     0
100
AcDbLine
 10
88851.708984375
 20
34775.87280273439
 30
0.0
 11
88851.708984375
 21
34527.33764648439
 31
0.0
  0
LINE
  5
1C8
330
1E
100
AcDbEntity
  8
LAY0_0
  6
Continuous
 62
     0
100
AcDbLine
 10
88851.708984375
 20
34527.33764648439
 30
0.0
 11
88383.64868164061
 21
34527.33764648439
 31
0.0
  0
LINE
  5
1C9
330
1E
100
AcDbEntity
  8
LAY0_0
  6
Continuous
 62
     0
100
AcDbLine
 10
81137.5244140625
 20
34777.8625488281
 30
0.0
 11
81137.5244140625
 21
35448.3947753906
 31
0.0
  0
LINE
  5
1CA
330
1E
100
AcDbEntity
  8
LAY0_0
  6
Continuous
 62
     0
100
AcDbLine
 10
88383.64868164061
 20
34775.87280273439
 30
0.0
 11
88851.708984375
 21
34775.87280273439
 31
0.0
  0
LINE
  5
1CB
330
1E
100
AcDbEntity
  8
LAY0_0
  6
CENTER
 62
     0
 48
1000.0
100
AcDbLine
 10
91309.38110351561
 20
29765.5517578125
 30
0.0
 11
45925.1068115234
 21
29765.5517578125
 31
0.0
  0
LINE
  5
1CC
330
1E
100
AcDbEntity
  8
LAY0_0
  6
CENTER
 62
     0
100
AcDbLine
 10
55440.8569335938
 20
36341.3513183594
 30
0.0
 11
55440.8569335938
 21
31165.24658203129
 31
0.0
  0
LINE
  5
1CD
330
1E
100
AcDbEntity
  8
LAY0_0
  6
Continuous
 62
     0
100
AcDbLine
 10
88383.64868164061
 20
34527.33764648439
 30
0.0
 11
88383.64868164061
 21
34775.87280273439
 31
0.0
  0
LINE
  5
1CE
330
1E
100
AcDbEntity
  8
LAY0_0
  6
CENTER
 62
     0
 48
1000.0
100
AcDbLine
 10
91269.31762695312
 20
37617.1264648438
 30
0.0
 11
45945.73745119728
 21
37617.12646484379
 31
0.0
  0
LINE
  5
1CF
330
1E
100
AcDbEntity
  8
LAY0_0
  6
Continuous
 62
     0
100
AcDbLine
 10
48665.43579101559
 20
36751.416015625
 30
0.0
 11
58696.0388183594
 21
36751.416015625
 31
0.0
  0
LINE
  5
1D0
330
1E
100
AcDbEntity
  8
LAY0_0
  6
Continuous
 62
     0
100
AcDbLine
 10
53377.0874023438
 20
39992.724609375
 30
0.0
 11
53377.0874023438
 21
36751.416015625
 31
0.0
  0
LINE
  5
1D1
330
1E
100
AcDbEntity
  8
LAY0_0
  6
Continuous
 62
     0
100
AcDbLine
 10
56835.009765625
 20
34934.73510742189
 30
0.0
 11
56886.71875
 21
34985.05859375
 31
0.0
  0
LINE
  5
1D2
330
1E
100
AcDbEntity
  8
LAY0_0
  6
Continuous
 62
     0
100
AcDbLine
 10
55963.6169433594
 20
34985.05859375
 30
0.0
 11
56015.3198242188
 21
34934.73510742189
 31
0.0
  0
LINE
  5
1D3
330
1E
100
AcDbEntity
  8
LAY0_0
  6
Continuous
 62
     0
100
AcDbLine
 10
60024.7192382813
 20
28380.2856445313
 30
0.0
 11
60024.7192382813
 21
29425.08544921879
 31
0.0
  0
LINE
  5
1D4
330
1E
100
AcDbEntity
  8
LAY0_0
  6
Continuous
 62
     0
100
AcDbLine
 10
45288.48266601559
 20
35441.35131835939
 30
0.0
 11
45288.4826660156
 21
31941.3330078125
 31
0.0
  0
LINE
  5
1D5
330
1E
100
AcDbEntity
  8
LAY0_0
  6
Continuous
 62
     0
100
AcDbLine
 10
60901.6479492188
 20
29425.08544921879
 30
0.0
 11
60901.6479492188
 21
28380.2856445313
 31
0.0
  0
LINE
  5
1D6
330
1E
100
AcDbEntity
  8
LAY0_0
  6
Continuous
 62
     0
100
AcDbLine
 10
60901.6479492188
 20
28380.2856445313
 30
0.0
 11
60024.7192382813
 21
28380.2856445313
 31
0.0
  0
LINE
  5
1D7
330
1E
100
AcDbEntity
  8
LAY0_0
  6
Continuous
 62
     0
100
AcDbLine
 10
56886.71875
 20
36240.6860351563
 30
0.0
 11
56990.1245117188
 21
36341.3513183594
 31
0.0
  0
LINE
  5
1D8
330
1E
100
AcDbEntity
  8
LAY0_0
  6
Continuous
 62
     0
100
AcDbLine
 10
56120.6176757813
 20
36341.3513183594
 30
0.0
 11
56783.3129882813
 21
36341.3513183594
 31
0.0
  0
LINE
  5
1D9
330
1E
100
AcDbEntity
  8
LAY0_0
  6
Continuous
 62
     0
100
AcDbLine
 10
53365.6066894531
 20
32775.3234863281
 30
0.0
 11
55092.529296875
 21
32775.3234863281
 31
0.0
  0
LINE
  5
1DA
330
1E
100
AcDbEntity
  8
LAY0_0
  6
Continuous
 62
     0
100
AcDbLine
 10
47746.4447021484
 20
36341.3513183594
 30
0.0
 11
47849.8504638672
 21
36240.6860351563
 31
0.0
  0
LINE
  5
1DB
330
1E
100
AcDbEntity
  8
LAY0_0
  6
Continuous
 62
     0
100
AcDbLine
 10
47849.8504638672
 20
36240.6860351563
 30
0.0
 11
47953.26232910159
 21
36341.3513183594
 31
0.0
  0
LINE
  5
1DC
330
1E
100
AcDbEntity
  8
LAY0_0
  6
Continuous
 62
     0
100
AcDbLine
 10
56835.009765625
 20
34934.73510742189
 30
0.0
 11
56015.3198242188
 21
34934.73510742189
 31
0.0
  0
LINE
  5
1DD
330
1E
100
AcDbEntity
  8
LAY0_0
  6
Continuous
 62
     0
100
AcDbLine
 10
56886.71875
 20
36240.6860351563
 30
0.0
 11
56886.71875
 21
34985.05859375
 31
0.0
  0
LINE
  5
1DE
330
1E
100
AcDbEntity
  8
LAY0_0
  6
Continuous
 62
     0
100
AcDbLine
 10
56783.3129882813
 20
36341.3513183594
 30
0.0
 11
56886.71875
 21
36240.6860351563
 31
0.0
  0
LINE
  5
1DF
330
1E
100
AcDbEntity
  8
LAY0_0
  6
Continuous
 62
     0
100
AcDbLine
 10
55963.6169433594
 20
34985.05859375
 30
0.0
 11
55963.6169433594
 21
36240.6860351563
 31
0.0
  0
LINE
  5
1E0
330
1E
100
AcDbEntity
  8
LAY0_0
  6
Continuous
 62
     0
100
AcDbLine
 10
52221.61865234379
 20
28247.3815917969
 30
0.0
 11
48665.43579101559
 21
28247.3815917969
 31
0.0
  0
LINE
  5
1E1
330
1E
100
AcDbEntity
  8
LAY0_0
  6
Continuous
 62
     0
100
AcDbLine
 10
57000.9887695313
 20
36341.3513183594
 30
0.0
 11
57000.9887695313
 21
36368.4448242188
 31
0.0
  0
LINE
  5
1E2
330
1E
100
AcDbEntity
  8
LAY0_0
  6
Continuous
 62
     0
100
AcDbLine
 10
48772.9583740234
 20
36190.3564453125
 30
0.0
 11
55963.80004882809
 21
36190.3564453125
 31
0.0
  0
LINE
  5
1E3
330
1E
100
AcDbEntity
  8
LAY0_0
  6
Continuous
 62
     0
100
AcDbLine
 10
48665.4418945313
 20
30701.3732910156
 30
0.0
 11
52315.1794433594
 21
30701.3732910156
 31
0.0
  0
LINE
  5
1E5
330
1E
100
AcDbEntity
  8
LAY0_0
  6
Continuous
 62
     0
100
AcDbLine
 10
47311.4318847656
 20
41336.3586425781
 30
0.0
 11
47311.4318847656
 21
41726.42822265629
 31
0.0
  0
LINE
  5
1E6
330
1E
100
AcDbEntity
  8
LAY0_0
  6
Continuous
 62
     0
100
AcDbLine
 10
57000.9887695313
 20
31041.3330078125
 30
0.0
 11
57000.9887695313
 21
31014.2578125
 31
0.0
  0
LINE
  5
1E7
330
1E
100
AcDbEntity
  8
LAY0_0
  6
Continuous
 62
     0
100
AcDbLine
 10
61262.47558593749
 20
41336.3586425781
 30
0.0
 11
61879.60205078129
 21
41336.3586425781
 31
0.0
  0
LINE
  5
1E8
330
1E
100
AcDbEntity
  8
LAY0_0
  6
Continuous
 62
     0
100
AcDbLine
 10
48876.36413574219
 20
31041.3330078125
 30
0.0
 11
55860.205078125
 21
31041.3330078125
 31
0.0
  0
LINE
  5
1E9
330
1E
100
AcDbEntity
  8
LAY0_0
  6
Continuous
 62
     0
100
AcDbLine
 10
48876.36413574219
 20
36341.3513183594
 30
0.0
 11
55860.205078125
 21
36341.3513183594
 31
0.0
  0
LINE
  5
1EA
330
1E
100
AcDbEntity
  8
LAY0_0
  6
Continuous
 62
     0
100
AcDbLine
 10
46425.10681152341
 20
31014.2578125
 30
0.0
 11
57000.9887695313
 21
31014.2578125
 31
0.0
  0
LINE
  5
1EB
330
1E
100
AcDbEntity
  8
LAY0_0
  6
Continuous
 62
     0
100
AcDbLine
 10
46188.4826660156
 20
31041.33300781249
 30
0.0
 11
47746.4447021484
 21
31041.3330078125
 31
0.0
  0
LINE
  5
1EC
330
1E
100
AcDbEntity
  8
LAY0_0
  6
Continuous
 62
     0
100
AcDbLine
 10
60024.7192382813
 20
29425.08544921879
 30
0.0
 11
60901.6479492188
 21
29425.08544921879
 31
0.0
  0
LINE
  5
1ED
330
1E
100
AcDbEntity
  8
LAY0_0
  6
Continuous
 62
     0
100
AcDbLine
 10
46213.5882568359
 20
31165.24658203129
 30
0.0
 11
47849.8504638672
 21
31165.24658203129
 31
0.0
  0
LINE
  5
1EE
330
1E
100
AcDbEntity
  8
LAY0_0
  6
Continuous
 62
     0
100
AcDbLine
 10
47849.8504638672
 20
36190.3564453125
 30
0.0
 11
46213.5882568359
 21
36190.3564453125
 31
0.0
  0
LINE
  5
1F0
330
1E
100
AcDbEntity
  8
LAY0_0
  6
Continuous
 62
     0
100
AcDbLine
 10
45443.5882568359
 20
35420.3564453125
 30
0.0
 11
45443.5882568359
 21
31935.24658203129
 31
0.0
  0
LINE
  5
1F1
330
1E
100
AcDbEntity
  8
LAY0_0
  6
Continuous
 62
     0
100
AcDbLine
 10
81838.5986328125
 20
39658.90502929689
 30
0.0
 11
81838.5986328125
 21
39619.98901367189
 31
0.0
  0
LINE
  5
1F2
330
1E
100
AcDbEntity
  8
LAY0_0
  6
Continuous
 62
     0
100
AcDbLine
 10
82766.62597656249
 20
40360.25390625
 30
0.0
 11
83070.58715820309
 21
40360.25390625
 31
0.0
  0
LINE
  5
1F3
330
1E
100
AcDbEntity
  8
LAY0_0
  6
Continuous
 62
     0
100
AcDbLine
 10
81838.5986328125
 20
39658.90502929689
 30
0.0
 11
81889.3371582031
 21
39707.36694335939
 31
0.0
  0
LINE
  5
1F4
330
1E
100
AcDbEntity
  8
LAY0_0
  6
Continuous
 62
     0
100
AcDbLine
 10
81889.3371582031
 20
39759.14916992189
 30
0.0
 11
81889.3371582031
 21
39707.36694335939
 31
0.0
  0
LINE
  5
1F5
330
1E
100
AcDbEntity
  8
LAY0_0
  6
Continuous
 62
     0
100
AcDbLine
 10
82250.5615234375
 20
39807.61108398439
 30
0.0
 11
82301.31225585941
 21
39759.14916992189
 31
0.0
  0
LINE
  5
1F6
330
1E
100
AcDbEntity
  8
LAY0_0
  6
Continuous
 62
     0
100
AcDbLine
 10
82665.1306152344
 20
39759.14916992189
 30
0.0
 11
82715.8752441406
 21
39807.61108398439
 31
0.0
  0
LINE
  5
1F7
330
1E
100
AcDbEntity
  8
LAY0_0
  6
Continuous
 62
     0
100
AcDbLine
 10
82301.31225585941
 20
40360.25390625
 30
0.0
 11
82665.1306152344
 21
40360.25390625
 31
0.0
  0
LINE
  5
1F8
330
1E
100
AcDbEntity
  8
LAY0_0
  6
Continuous
 62
     0
100
AcDbLine
 10
82250.5615234375
 20
40311.7858886719
 30
0.0
 11
82250.5615234375
 21
39807.61108398439
 31
0.0
  0
LINE
  5
1F9
330
1E
100
AcDbEntity
  8
LAY0_0
  6
Continuous
 62
     0
100
AcDbLine
 10
81838.5986328125
 20
39807.61108398439
 30
0.0
 11
81889.3371582031
 21
39759.14916992189
 31
0.0
  0
LINE
  5
1FA
330
1E
100
AcDbEntity
  8
LAY0_0
  6
Continuous
 62
     0
100
AcDbLine
 10
82766.62597656249
 20
39759.14916992189
 30
0.0
 11
83070.58715820309
 21
39759.14916992189
 31
0.0
  0
LINE
  5
1FB
330
1E
100
AcDbEntity
  8
LAY0_0
  6
Continuous
 62
     0
100
AcDbLine
 10
83121.32568359379
 20
39807.61108398439
 30
0.0
 11
83070.58715820309
 21
39759.14916992189
 31
0.0
  0
LINE
  5
1FC
330
1E
100
AcDbEntity
  8
LAY0_0
  6
Continuous
 62
     0
100
AcDbLine
 10
83070.58715820309
 20
39571.5209960938
 30
0.0
 11
83070.58715820309
 21
39519.7509765625
 31
0.0
  0
LINE
  5
1FD
330
1E
100
AcDbEntity
  8
LAY0_0
  6
Continuous
 62
     0
100
AcDbLine
 10
82301.31225585941
 20
39759.14916992189
 30
0.0
 11
82665.1306152344
 21
39759.14916992189
 31
0.0
  0
LINE
  5
1FE
330
1E
100
AcDbEntity
  8
LAY0_0
  6
Continuous
 62
     0
100
AcDbLine
 10
83121.32568359379
 20
39619.98901367189
 30
0.0
 11
83070.58715820309
 21
39571.5209960938
 31
0.0
  0
LINE
  5
1FF
330
1E
100
AcDbEntity
  8
LAY0_0
  6
Continuous
 62
     0
100
AcDbLine
 10
83121.32568359379
 20
39658.90502929689
 30
0.0
 11
83121.32568359379
 21
39619.98901367189
 31
0.0
  0
LINE
  5
200
330
1E
100
AcDbEntity
  8
LAY0_0
  6
Continuous
 62
     0
100
AcDbLine
 10
83121.32568359379
 20
39658.90502929689
 30
0.0
 11
83070.58715820309
 21
39707.36694335939
 31
0.0
  0
LINE
  5
201
330
1E
100
AcDbEntity
  8
LAY0_0
  6
Continuous
 62
     0
100
AcDbLine
 10
83070.58715820309
 20
39759.14916992189
 30
0.0
 11
83070.58715820309
 21
39707.36694335939
 31
0.0
  0
LINE
  5
202
330
1E
100
AcDbEntity
  8
LAY0_0
  6
Continuous
 62
     0
100
AcDbLine
 10
83121.32568359379
 20
40460.4919433594
 30
0.0
 11
83070.58715820309
 21
40412.03002929689
 31
0.0
  0
LINE
  5
203
330
1E
100
AcDbEntity
  8
LAY0_0
  6
Continuous
 62
     0
100
AcDbLine
 10
83121.32568359379
 20
40311.7858886719
 30
0.0
 11
83070.58715820309
 21
40360.25390625
 31
0.0
  0
LINE
  5
204
330
1E
100
AcDbEntity
  8
LAY0_0
  6
Continuous
 62
     0
100
AcDbLine
 10
82221.4477539063
 20
40590.8264160156
 30
0.0
 11
82305.419921875
 21
40510.61401367189
 31
0.0
  0
LINE
  5
205
330
1E
100
AcDbEntity
  8
LAY0_0
  6
Continuous
 62
     0
100
AcDbLine
 10
83121.32568359379
 20
40508.75854492189
 30
0.0
 11
83121.32568359379
 21
40460.4919433594
 31
0.0
  0
LINE
  5
206
330
1E
100
AcDbEntity
  8
LAY0_0
  6
Continuous
 62
     0
100
AcDbLine
 10
81838.5986328125
 20
40508.75854492189
 30
0.0
 11
81838.5986328125
 21
40460.4919433594
 31
0.0
  0
LINE
  5
207
330
1E
100
AcDbEntity
  8
LAY0_0
  6
Continuous
 62
     0
100
AcDbLine
 10
81838.5986328125
 20
40460.4919433594
 30
0.0
 11
81889.3432617188
 21
40412.03002929689
 31
0.0
  0
LINE
  5
208
330
1E
100
AcDbEntity
  8
LAY0_0
  6
Continuous
 62
     0
100
AcDbLine
 10
83070.58715820309
 20
40412.03002929689
 30
0.0
 11
83070.58715820309
 21
40360.25390625
 31
0.0
  0
LINE
  5
209
330
1E
100
AcDbEntity
  8
LAY0_0
  6
Continuous
 62
     0
100
AcDbLine
 10
81890.2954101563
 20
40559.0942382813
 30
0.0
 11
82254.6752929688
 21
40559.0942382813
 31
0.0
  0
LINE
  5
20A
330
1E
100
AcDbEntity
  8
LAY0_0
  6
Continuous
 62
     0
100
AcDbLine
 10
82654.49218749999
 20
40510.61401367189
 30
0.0
 11
82738.48876953129
 21
40590.8386230469
 31
0.0
  0
LINE
  5
20B
330
1E
100
AcDbEntity
  8
LAY0_0
  6
Continuous
 62
     0
100
AcDbLine
 10
82199.81689453129
 20
39759.14916992189
 30
0.0
 11
82250.5615234375
 21
39807.61108398439
 31
0.0
  0
LINE
  5
20C
330
1E
100
AcDbEntity
  8
LAY0_0
  6
Continuous
 62
     0
100
AcDbLine
 10
82301.31225585941
 20
39759.14916992189
 30
0.0
 11
82665.1306152344
 21
39759.14916992189
 31
0.0
  0
LINE
  5
20D
330
1E
100
AcDbEntity
  8
LAY0_0
  6
Continuous
 62
     0
100
AcDbLine
 10
82715.8752441406
 20
39807.61108398439
 30
0.0
 11
82766.62597656249
 21
39759.14916992189
 31
0.0
  0
LINE
  5
20E
330
1E
100
AcDbEntity
  8
LAY0_0
  6
Continuous
 62
     0
100
AcDbLine
 10
82250.5615234375
 20
40311.7858886719
 30
0.0
 11
82301.31225585941
 21
40360.25390625
 31
0.0
  0
LINE
  5
20F
330
1E
100
AcDbEntity
  8
LAY0_0
  6
Continuous
 62
     0
100
AcDbLine
 10
82199.81689453129
 20
40360.25390625
 30
0.0
 11
82250.5615234375
 21
40311.7858886719
 31
0.0
  0
LINE
  5
210
330
1E
100
AcDbEntity
  8
LAY0_0
  6
Continuous
 62
     0
100
AcDbLine
 10
82715.8752441406
 20
40311.7858886719
 30
0.0
 11
82766.62597656249
 21
40360.25390625
 31
0.0
  0
LINE
  5
211
330
1E
100
AcDbEntity
  8
LAY0_0
  6
Continuous
 62
     0
100
AcDbLine
 10
82665.1306152344
 20
40360.25390625
 30
0.0
 11
82715.8752441406
 21
40311.7858886719
 31
0.0
  0
LINE
  5
212
330
1E
100
AcDbEntity
  8
LAY0_0
  6
Continuous
 62
     0
100
AcDbLine
 10
82715.8752441406
 20
40311.7858886719
 30
0.0
 11
82715.8752441406
 21
39807.61108398439
 31
0.0
  0
LINE
  5
213
330
1E
100
AcDbEntity
  8
LAY0_0
  6
Continuous
 62
     0
100
AcDbLine
 10
82766.62597656249
 20
39519.7509765625
 30
0.0
 11
83070.58715820309
 21
39519.7509765625
 31
0.0
  0
LINE
  5
214
330
1E
100
AcDbEntity
  8
LAY0_0
  6
Continuous
 62
     0
100
AcDbLine
 10
82301.31225585941
 20
39519.7509765625
 30
0.0
 11
82665.1306152344
 21
39519.7509765625
 31
0.0
  0
LINE
  5
215
330
1E
100
AcDbEntity
  8
LAY0_0
  6
Continuous
 62
     0
100
AcDbLine
 10
83121.32568359379
 20
38967.1020507813
 30
0.0
 11
83070.58715820309
 21
38918.6340332031
 31
0.0
  0
LINE
  5
216
330
1E
100
AcDbEntity
  8
LAY0_0
  6
Continuous
 62
     0
100
AcDbLine
 10
81838.5986328125
 20
38967.1020507813
 30
0.0
 11
81889.3371582031
 21
38918.6340332031
 31
0.0
  0
LINE
  5
217
330
1E
100
AcDbEntity
  8
LAY0_0
  6
Continuous
 62
     0
100
AcDbLine
 10
82665.1306152344
 20
38918.6340332031
 30
0.0
 11
82715.8752441406
 21
38967.1020507813
 31
0.0
  0
LINE
  5
218
330
1E
100
AcDbEntity
  8
LAY0_0
  6
Continuous
 62
     0
100
AcDbLine
 10
82715.8752441406
 20
38967.1020507813
 30
0.0
 11
82766.62597656249
 21
38918.6340332031
 31
0.0
  0
LINE
  5
219
330
1E
100
AcDbEntity
  8
LAY0_0
  6
Continuous
 62
     0
100
AcDbLine
 10
82250.5615234375
 20
39471.2768554688
 30
0.0
 11
82250.5615234375
 21
38967.1020507813
 31
0.0
  0
LINE
  5
21A
330
1E
100
AcDbEntity
  8
LAY0_0
  6
Continuous
 62
     0
100
AcDbLine
 10
82250.5615234375
 20
38967.1020507813
 30
0.0
 11
82301.31225585941
 21
38918.6340332031
 31
0.0
  0
LINE
  5
21B
330
1E
100
AcDbEntity
  8
LAY0_0
  6
Continuous
 62
     0
100
AcDbLine
 10
82766.62597656249
 20
38918.6340332031
 30
0.0
 11
83070.58715820309
 21
38918.6340332031
 31
0.0
  0
LINE
  5
21C
330
1E
100
AcDbEntity
  8
LAY0_0
  6
Continuous
 62
     0
100
AcDbLine
 10
81838.5986328125
 20
27832.7880859375
 30
0.0
 11
81889.3432617188
 21
27881.26220703129
 31
0.0
  0
LINE
  5
21D
330
1E
100
AcDbEntity
  8
LAY0_0
  6
Continuous
 62
     0
100
AcDbLine
 10
81970.77026367191
 20
29157.0922851563
 30
0.0
 11
81919.0673828125
 21
29106.7565917969
 31
0.0
  0
LINE
  5
21E
330
1E
100
AcDbEntity
  8
LAY0_0
  6
Continuous
 62
     0
100
AcDbLine
 10
81889.3371582031
 20
27693.6401367188
 30
0.0
 11
82199.81689453129
 21
27693.6401367188
 31
0.0
  0
LINE
  5
21F
330
1E
100
AcDbEntity
  8
LAY0_0
  6
Continuous
 62
     0
100
AcDbLine
 10
81889.3432617188
 20
27881.26220703129
 30
0.0
 11
81889.3432617188
 21
27933.0322265625
 31
0.0
  0
LINE
  5
220
330
1E
100
AcDbEntity
  8
LAY0_0
  6
Continuous
 62
     0
100
AcDbLine
 10
81838.5986328125
 20
38818.3837890625
 30
0.0
 11
81889.3371582031
 21
38866.8518066406
 31
0.0
  0
LINE
  5
221
330
1E
100
AcDbEntity
  8
LAY0_0
  6
Continuous
 62
     0
100
AcDbLine
 10
82301.31225585941
 20
38918.6340332031
 30
0.0
 11
82665.1306152344
 21
38918.6340332031
 31
0.0
  0
LINE
  5
222
330
1E
100
AcDbEntity
  8
LAY0_0
  6
Continuous
 62
     0
100
AcDbLine
 10
82333.984375
 20
29157.0922851563
 30
0.0
 11
82385.6872558594
 21
29106.7565917969
 31
0.0
  0
LINE
  5
223
330
1E
100
AcDbEntity
  8
LAY0_0
  6
Continuous
 62
     0
100
AcDbLine
 10
83121.32568359379
 20
38818.3837890625
 30
0.0
 11
83070.58105468749
 21
38866.8518066406
 31
0.0
  0
LINE
  5
224
330
1E
100
AcDbEntity
  8
LAY0_0
  6
Continuous
 62
     0
100
AcDbLine
 10
83121.32568359379
 20
38967.1020507813
 30
0.0
 11
83070.58105468749
 21
38918.6340332031
 31
0.0
  0
LINE
  5
225
330
1E
100
AcDbEntity
  8
LAY0_0
  6
Continuous
 62
     0
100
AcDbLine
 10
83070.58105468749
 20
38918.6340332031
 30
0.0
 11
83070.58105468749
 21
38866.8518066406
 31
0.0
  0
LINE
  5
226
330
1E
100
AcDbEntity
  8
LAY0_0
  6
Continuous
 62
     0
100
AcDbLine
 10
83121.32568359379
 20
38967.1020507813
 30
0.0
 11
83121.32568359379
 21
39471.2768554688
 31
0.0
  0
LINE
  5
227
330
1E
100
AcDbEntity
  8
LAY0_0
  6
Continuous
 62
     0
100
AcDbLine
 10
81889.3371582031
 20
38918.6340332031
 30
0.0
 11
82199.81689453129
 21
38918.6340332031
 31
0.0
  0
LINE
  5
228
330
1E
100
AcDbEntity
  8
LAY0_0
  6
Continuous
 62
     0
100
AcDbLine
 10
81838.5986328125
 20
39471.2768554688
 30
0.0
 11
81838.5986328125
 21
38967.1020507813
 31
0.0
  0
LINE
  5
229
330
1E
100
AcDbEntity
  8
LAY0_0
  6
Continuous
 62
     0
100
AcDbLine
 10
83121.32568359379
 20
39471.2768554688
 30
0.0
 11
83070.58715820309
 21
39519.7509765625
 31
0.0
  0
LINE
  5
22A
330
1E
100
AcDbEntity
  8
LAY0_0
  6
Continuous
 62
     0
100
AcDbLine
 10
83121.32568359379
 20
39285.46142578129
 30
0.0
 11
83121.32568359379
 21
38967.1020507813
 31
0.0
  0
LINE
  5
22B
330
1E
100
AcDbEntity
  8
LAY0_0
  6
Continuous
 62
     0
100
AcDbLine
 10
81889.3371582031
 20
38918.6340332031
 30
0.0
 11
81889.3371582031
 21
38866.8518066406
 31
0.0
  0
LINE
  5
22C
330
1E
100
AcDbEntity
  8
LAY0_0
  6
Continuous
 62
     0
100
AcDbLine
 10
81889.3432617188
 20
39519.7509765625
 30
0.0
 11
82199.81689453129
 21
39519.7509765625
 31
0.0
  0
LINE
  5
22D
330
1E
100
AcDbEntity
  8
LAY0_0
  6
Continuous
 62
     0
100
AcDbLine
 10
82301.31225585941
 20
38918.6340332031
 30
0.0
 11
82665.1306152344
 21
38918.6340332031
 31
0.0
  0
LINE
  5
22E
330
1E
100
AcDbEntity
  8
LAY0_0
  6
Continuous
 62
     0
100
AcDbLine
 10
82665.1306152344
 20
39519.7509765625
 30
0.0
 11
82715.8752441406
 21
39471.2768554688
 31
0.0
  0
LINE
  5
22F
330
1E
100
AcDbEntity
  8
LAY0_0
  6
Continuous
 62
     0
100
AcDbLine
 10
82250.5615234375
 20
39471.2768554688
 30
0.0
 11
82301.31225585941
 21
39519.7509765625
 31
0.0
  0
LINE
  5
230
330
1E
100
AcDbEntity
  8
LAY0_0
  6
Continuous
 62
     0
100
AcDbLine
 10
82199.81689453129
 20
38918.6340332031
 30
0.0
 11
82250.5615234375
 21
38967.1020507813
 31
0.0
  0
LINE
  5
231
330
1E
100
AcDbEntity
  8
LAY0_0
  6
Continuous
 62
     0
100
AcDbLine
 10
82715.8752441406
 20
39471.2768554688
 30
0.0
 11
82766.62597656249
 21
39519.7509765625
 31
0.0
  0
LINE
  5
232
330
1E
100
AcDbEntity
  8
LAY0_0
  6
Continuous
 62
     0
100
AcDbLine
 10
81838.5986328125
 20
39471.2768554688
 30
0.0
 11
81889.3432617188
 21
39519.7509765625
 31
0.0
  0
LINE
  5
233
330
1E
100
AcDbEntity
  8
LAY0_0
  6
Continuous
 62
     0
100
AcDbLine
 10
82715.8752441406
 20
39471.2768554688
 30
0.0
 11
82715.8752441406
 21
38967.1020507813
 31
0.0
  0
LINE
  5
234
330
1E
100
AcDbEntity
  8
LAY0_0
  6
Continuous
 62
     0
100
AcDbLine
 10
82199.81689453129
 20
39519.7509765625
 30
0.0
 11
82250.5615234375
 21
39471.2768554688
 31
0.0
  0
LINE
  5
235
330
1E
100
AcDbEntity
  8
LAY0_0
  6
Continuous
 62
     0
100
AcDbLine
 10
81889.3432617188
 20
40412.03002929689
 30
0.0
 11
81889.3432617188
 21
40360.25390625
 31
0.0
  0
LINE
  5
236
330
1E
100
AcDbEntity
  8
LAY0_0
  6
Continuous
 62
     0
100
AcDbLine
 10
56067.0288085938
 20
36341.3513183594
 30
0.0
 11
56783.3129882813
 21
36341.3513183594
 31
0.0
  0
LINE
  5
237
330
1E
100
AcDbEntity
  8
LAY0_0
  6
Continuous
 62
     0
100
AcDbLine
 10
56990.1245117188
 20
36341.3513183594
 30
0.0
 11
57000.9887695313
 21
36341.3513183594
 31
0.0
  0
LINE
  5
238
330
1E
100
AcDbEntity
  8
LAY0_0
  6
Continuous
 62
     0
100
AcDbLine
 10
61879.60205078129
 20
41336.3586425781
 30
0.0
 11
61879.60205078129
 21
41726.3793945313
 31
0.0
  0
LINE
  5
239
330
1E
100
AcDbEntity
  8
LAY0_0
  6
Continuous
 62
     0
100
AcDbLine
 10
56990.1245117188
 20
31041.3330078125
 30
0.0
 11
57000.9887695313
 21
31041.3330078125
 31
0.0
  0
LINE
  5
23A
330
1E
100
AcDbEntity
  8
LAY0_0
  6
Continuous
 62
     0
100
AcDbLine
 10
55963.6169433594
 20
31141.9921875
 30
0.0
 11
55963.6169433594
 21
32397.6135253906
 31
0.0
  0
LINE
  5
23B
330
1E
100
AcDbEntity
  8
LAY0_0
  6
Continuous
 62
     0
100
AcDbLine
 10
56886.71875
 20
32397.6135253906
 30
0.0
 11
56835.009765625
 21
32447.94921875
 31
0.0
  0
LINE
  5
23C
330
1E
100
AcDbEntity
  8
LAY0_0
  6
Continuous
 62
     0
100
AcDbLine
 10
56067.0288085938
 20
31041.3330078125
 30
0.0
 11
56783.3129882813
 21
31041.3330078125
 31
0.0
  0
LINE
  5
23D
330
1E
100
AcDbEntity
  8
LAY0_0
  6
Continuous
 62
     0
100
AcDbLine
 10
56783.3129882813
 20
31041.3330078125
 30
0.0
 11
56067.0288085938
 21
31041.3330078125
 31
0.0
  0
LINE
  5
23E
330
1E
100
AcDbEntity
  8
LAY0_0
  6
Continuous
 62
     0
100
AcDbLine
 10
61262.47558593749
 20
41726.42822265629
 30
0.0
 11
61262.47558593749
 21
41336.3586425781
 31
0.0
  0
LINE
  5
23F
330
1E
100
AcDbEntity
  8
LAY0_0
  6
Continuous
 62
     0
100
AcDbLine
 10
80679.60205078131
 20
41726.42822265629
 30
0.0
 11
80679.60205078129
 21
41336.3647460938
 31
0.0
  0
LINE
  5
240
330
1E
100
AcDbEntity
  8
LAY0_0
  6
Continuous
 62
     0
100
AcDbLine
 10
86824.31640625001
 20
41336.3586425781
 30
0.0
 11
86824.31640625001
 21
41726.42822265629
 31
0.0
  0
LINE
  5
241
330
1E
100
AcDbEntity
  8
LAY0_0
  6
Continuous
 62
     0
100
AcDbLine
 10
84051.7456054688
 20
32859.423828125
 30
0.0
 11
83183.0322265625
 21
32859.423828125
 31
0.0
  0
LINE
  5
242
330
1E
100
AcDbEntity
  8
LAY0_0
  6
Continuous
 62
     0
100
AcDbLine
 10
83183.0322265625
 20
32859.423828125
 30
0.0
 11
83183.0322265625
 21
33529.9621582031
 31
0.0
  0
LINE
  5
243
330
1E
100
AcDbEntity
  8
LAY0_0
  6
Continuous
 62
     0
100
AcDbLine
 10
48340.46020507809
 20
41336.3586425781
 30
0.0
 11
47311.4318847656
 21
41336.3586425781
 31
0.0
  0
LINE
  5
244
330
1E
100
AcDbEntity
  8
LAY0_0
  6
Continuous
 62
     0
100
AcDbLine
 10
61879.60205078129
 20
41336.3586425781
 30
0.0
 11
61879.60205078129
 21
41726.3793945313
 31
0.0
  0
LINE
  5
245
330
1E
100
AcDbEntity
  8
LAY0_0
  6
Continuous
 62
     0
100
AcDbLine
 10
86824.31640625001
 20
41336.3586425781
 30
0.0
 11
87918.2861328125
 21
41336.3586425781
 31
0.0
  0
LINE
  5
246
330
1E
100
AcDbEntity
  8
LAY0_0
  6
Continuous
 62
     0
100
AcDbLine
 10
87918.2861328125
 20
41336.3586425781
 30
0.0
 11
87918.2861328125
 21
41726.42822265629
 31
0.0
  0
LINE
  5
247
330
1E
100
AcDbEntity
  8
LAY0_0
  6
Continuous
 62
     0
100
AcDbLine
 10
47901.5594482422
 20
32447.94921875
 30
0.0
 11
47849.8504638672
 21
32397.6196289063
 31
0.0
  0
LINE
  5
248
330
1E
100
AcDbEntity
  8
LAY0_0
  6
Continuous
 62
     0
100
AcDbLine
 10
48772.9583740234
 20
32397.6196289063
 30
0.0
 11
48721.25549316409
 21
32447.94921875
 31
0.0
  0
LINE
  5
249
330
1E
100
AcDbEntity
  8
LAY0_0
  6
Continuous
 62
     0
100
AcDbLine
 10
47953.26232910159
 20
31041.3330078125
 30
0.0
 11
47849.8504638672
 21
31141.9921875
 31
0.0
  0
LINE
  5
24A
330
1E
100
AcDbEntity
  8
LAY0_0
  6
Continuous
 62
     0
100
AcDbLine
 10
47849.8504638672
 20
31141.9921875
 30
0.0
 11
47746.4447021484
 21
31041.3330078125
 31
0.0
  0
LINE
  5
24B
330
1E
100
AcDbEntity
  8
LAY0_0
  6
Continuous
 62
     0
100
AcDbLine
 10
47953.26232910159
 20
31041.3330078125
 30
0.0
 11
48669.5495605469
 21
31041.3330078125
 31
0.0
  0
LINE
  5
24C
330
1E
100
AcDbEntity
  8
LAY0_0
  6
Continuous
 62
     0
100
AcDbLine
 10
48772.9583740234
 20
32397.6196289063
 30
0.0
 11
48772.9583740234
 21
31141.9921875
 31
0.0
  0
LINE
  5
24D
330
1E
100
AcDbEntity
  8
LAY0_0
  6
Continuous
 62
     0
100
AcDbLine
 10
48876.36413574219
 20
31041.3330078125
 30
0.0
 11
48772.9583740234
 21
31141.9921875
 31
0.0
  0
LINE
  5
24E
330
1E
100
AcDbEntity
  8
LAY0_0
  6
Continuous
 62
     0
100
AcDbLine
 10
48772.9583740234
 20
31141.9921875
 30
0.0
 11
48669.5495605469
 21
31041.3330078125
 31
0.0
  0
LINE
  5
24F
330
1E
100
AcDbEntity
  8
LAY0_0
  6
Continuous
 62
     0
100
AcDbLine
 10
48772.9583740234
 20
31165.24658203129
 30
0.0
 11
55963.6169433594
 21
31165.24658203129
 31
0.0
  0
LINE
  5
250
330
1E
100
AcDbEntity
  8
LAY0_0
  6
Continuous
 62
     0
100
AcDbLine
 10
56067.0288085938
 20
31041.3330078125
 30
0.0
 11
55963.6169433594
 21
31141.9921875
 31
0.0
  0
LINE
  5
251
330
1E
100
AcDbEntity
  8
LAY0_0
  6
Continuous
 62
     0
100
AcDbLine
 10
55963.6169433594
 20
31141.9921875
 30
0.0
 11
55860.205078125
 21
31041.3330078125
 31
0.0
  0
LINE
  5
252
330
1E
100
AcDbEntity
  8
LAY0_0
  6
Continuous
 62
     0
100
AcDbLine
 10
56886.71875
 20
32397.6135253906
 30
0.0
 11
56886.71875
 21
31141.9921875
 31
0.0
  0
LINE
  5
253
330
1E
100
AcDbEntity
  8
LAY0_0
  6
Continuous
 62
     0
100
AcDbLine
 10
56015.3198242188
 20
32447.94921875
 30
0.0
 11
56835.009765625
 21
32447.94921875
 31
0.0
  0
LINE
  5
254
330
1E
100
AcDbEntity
  8
LAY0_0
  6
Continuous
 62
     0
100
AcDbLine
 10
56886.71875
 20
31141.9921875
 30
0.0
 11
56783.3129882813
 21
31041.3330078125
 31
0.0
  0
LINE
  5
255
330
1E
100
AcDbEntity
  8
LAY0_0
  6
Continuous
 62
     0
100
AcDbLine
 10
47953.26232910159
 20
31041.3330078125
 30
0.0
 11
48669.5495605469
 21
31041.3330078125
 31
0.0
  0
LINE
  5
256
330
1E
100
AcDbEntity
  8
LAY0_0
  6
Continuous
 62
     0
100
AcDbLine
 10
56015.3198242188
 20
32447.94921875
 30
0.0
 11
55963.6169433594
 21
32397.6135253906
 31
0.0
  0
LINE
  5
257
330
1E
100
AcDbEntity
  8
LAY0_0
  6
Continuous
 62
     0
100
AcDbLine
 10
56990.1245117188
 20
31041.3330078125
 30
0.0
 11
56886.71875
 21
31141.9921875
 31
0.0
  0
LINE
  5
258
330
1E
100
AcDbEntity
  8
LAY0_0
  6
Continuous
 62
     0
100
AcDbLine
 10
83121.32568359379
 20
39807.61108398439
 30
0.0
 11
83121.32568359379
 21
40311.7858886719
 31
0.0
  0
LINE
  5
259
330
1E
100
AcDbEntity
  8
LAY0_0
  6
Continuous
 62
     0
100
AcDbLine
 10
83121.32568359379
 20
38621.25854492189
 30
0.0
 11
83121.32568359379
 21
38818.3837890625
 31
0.0
  0
LINE
  5
25A
330
1E
100
AcDbEntity
  8
LAY0_0
  6
Continuous
 62
     0
100
AcDbLine
 10
81838.5986328125
 20
38621.25854492189
 30
0.0
 11
81838.5986328125
 21
38818.3837890625
 31
0.0
  0
LINE
  5
25B
330
1E
100
AcDbEntity
  8
LAY0_0
  6
Continuous
 62
     0
100
AcDbLine
 10
81890.2954101563
 20
38570.9289550781
 30
0.0
 11
83069.62890624999
 21
38570.9289550781
 31
0.0
  0
LINE
  5
25C
330
1E
100
AcDbEntity
  8
LAY0_0
  6
Continuous
 62
     0
100
AcDbLine
 10
82333.984375
 20
38295.6909179688
 30
0.0
 11
81970.77026367191
 21
38295.6909179688
 31
0.0
  0
LINE
  5
25D
330
1E
100
AcDbEntity
  8
LAY0_0
  6
Continuous
 62
     0
100
AcDbLine
 10
81919.0673828125
 20
38346.01440429689
 30
0.0
 11
81919.0673828125
 21
38570.9289550781
 31
0.0
  0
LINE
  5
25E
330
1E
100
AcDbEntity
  8
LAY0_0
  6
Continuous
 62
     0
100
AcDbLine
 10
81919.0673828125
 20
38570.9289550781
 30
0.0
 11
82385.6872558594
 21
38570.9289550781
 31
0.0
  0
LINE
  5
25F
330
1E
100
AcDbEntity
  8
LAY0_0
  6
Continuous
 62
     0
100
AcDbLine
 10
82385.6872558594
 20
38570.9289550781
 30
0.0
 11
82385.6872558594
 21
38346.01440429689
 31
0.0
  0
LINE
  5
260
330
1E
100
AcDbEntity
  8
LAY0_0
  6
Continuous
 62
     0
100
AcDbLine
 10
82686.7858886719
 20
40903.65600585939
 30
0.0
 11
82738.48876953129
 21
40853.3264160156
 31
0.0
  0
LINE
  5
261
330
1E
100
AcDbEntity
  8
LAY0_0
  6
Continuous
 62
     0
100
AcDbLine
 10
81889.3432617188
 20
40360.25390625
 30
0.0
 11
82199.81689453129
 21
40360.25390625
 31
0.0
  0
LINE
  5
262
330
1E
100
AcDbEntity
  8
LAY0_0
  6
Continuous
 62
     0
100
AcDbLine
 10
82705.23681640629
 20
40559.0942382813
 30
0.0
 11
83069.6533203125
 21
40559.0942382813
 31
0.0
  0
LINE
  5
263
330
1E
100
AcDbEntity
  8
LAY0_0
  6
Continuous
 62
     0
100
AcDbLine
 10
81838.5986328125
 20
40311.7858886719
 30
0.0
 11
81889.3432617188
 21
40360.25390625
 31
0.0
  0
LINE
  5
264
330
1E
100
AcDbEntity
  8
LAY0_0
  6
Continuous
 62
     0
100
AcDbLine
 10
81838.5986328125
 20
39807.61108398439
 30
0.0
 11
81838.5986328125
 21
40311.7858886719
 31
0.0
  0
LINE
  5
265
330
1E
100
AcDbEntity
  8
LAY0_0
  6
Continuous
 62
     0
100
AcDbLine
 10
82654.49218749999
 20
40510.61401367189
 30
0.0
 11
82305.419921875
 21
40510.61401367189
 31
0.0
  0
LINE
  5
266
330
1E
100
AcDbEntity
  8
LAY0_0
  6
Continuous
 62
     0
100
AcDbLine
 10
82221.4477539063
 20
40853.3264160156
 30
0.0
 11
82273.14453125
 21
40903.65600585939
 31
0.0
  0
LINE
  5
267
330
1E
100
AcDbEntity
  8
LAY0_0
  6
Continuous
 62
     0
100
AcDbLine
 10
82273.14453125
 20
40903.65600585939
 30
0.0
 11
82686.7858886719
 21
40903.65600585939
 31
0.0
  0
LINE
  5
268
330
1E
100
AcDbEntity
  8
LAY0_0
  6
Continuous
 62
     0
100
AcDbLine
 10
82738.48876953129
 20
40853.3264160156
 30
0.0
 11
82738.48876953129
 21
40590.8386230469
 31
0.0
  0
LINE
  5
269
330
1E
100
AcDbEntity
  8
LAY0_0
  6
DASHED2
 62
     0
100
AcDbLine
 10
90948.07739257811
 20
34526.01928710939
 30
0.0
 11
89757.8491210938
 21
34526.01928710939
 31
0.0
  0
LINE
  5
26A
330
1E
100
AcDbEntity
  8
LAY0_0
  6
DASHED2
 62
     0
100
AcDbLine
 10
91171.52709960938
 20
34651.60522460939
 30
0.0
 11
90948.07739257811
 21
34777.1789550781
 31
0.0
  0
LINE
  5
26B
330
1E
100
AcDbEntity
  8
LAY0_0
  6
DASHED2
 62
     0
100
AcDbLine
 10
90948.07739257811
 20
34777.1789550781
 30
0.0
 11
89757.8491210938
 21
34777.1789550781
 31
0.0
  0
LINE
  5
26C
330
1E
100
AcDbEntity
  8
LAY0_0
  6
DASHED2
 62
     0
100
AcDbLine
 10
91171.52709960938
 20
34651.60522460939
 30
0.0
 11
90948.07739257811
 21
34526.01928710939
 31
0.0
  0
LINE
  5
26D
330
1E
100
AcDbEntity
  8
LAY0_0
  6
Continuous
 62
     0
100
AcDbLine
 10
83183.0322265625
 20
33529.9621582031
 30
0.0
 11
84051.7456054688
 21
33529.9621582031
 31
0.0
  0
LINE
  5
26E
330
1E
100
AcDbEntity
  8
LAY0_0
  6
Continuous
 62
     0
100
AcDbLine
 10
84051.7456054688
 20
33529.9621582031
 30
0.0
 11
84051.7456054688
 21
32859.423828125
 31
0.0
  0
LINE
  5
26F
330
1E
100
AcDbEntity
  8
LAY0_0
  6
DASHED2
 62
     0
100
AcDbLine
 10
89757.8491210938
 20
34777.1789550781
 30
0.0
 11
89531.4086914063
 21
34696.9482421875
 31
0.0
  0
LINE
  5
270
330
1E
100
AcDbEntity
  8
LAY0_0
  6
DASHED2
 62
     0
100
AcDbLine
 10
89757.8491210938
 20
34526.01928710939
 30
0.0
 11
89523.71215820312
 21
34608.9721679688
 31
0.0
  0
LINE
  5
271
330
1E
100
AcDbEntity
  8
LAY0_0
  6
Continuous
 62
     0
100
AcDbLine
 10
82333.984375
 20
38295.6909179688
 30
0.0
 11
82385.6872558594
 21
38346.01440429689
 31
0.0
  0
LINE
  5
272
330
1E
100
AcDbEntity
  8
LAY0_0
  6
Continuous
 62
     0
100
AcDbLine
 10
81838.5986328125
 20
40508.75854492189
 30
0.0
 11
81890.2954101563
 21
40559.0942382813
 31
0.0
  0
LINE
  5
273
330
1E
100
AcDbEntity
  8
LAY0_0
  6
Continuous
 62
     0
100
AcDbLine
 10
83069.6533203125
 20
40559.0942382813
 30
0.0
 11
83121.3623046875
 21
40508.75854492189
 31
0.0
  0
LINE
  5
274
330
1E
100
AcDbEntity
  8
LAY0_0
  6
Continuous
 62
     0
100
AcDbLine
 10
81838.5986328125
 20
38621.25854492189
 30
0.0
 11
81890.2954101563
 21
38570.9289550781
 31
0.0
  0
LINE
  5
275
330
1E
100
AcDbEntity
  8
LAY0_0
  6
Continuous
 62
     0
100
AcDbLine
 10
83069.62890624999
 20
38570.9289550781
 30
0.0
 11
83121.32568359379
 21
38621.25854492189
 31
0.0
  0
LINE
  5
276
330
1E
100
AcDbEntity
  8
LAY0_0
  6
Continuous
 62
     0
100
AcDbLine
 10
81838.5986328125
 20
39619.98901367189
 30
0.0
 11
81889.3432617188
 21
39571.5209960938
 31
0.0
  0
LINE
  5
277
330
1E
100
AcDbEntity
  8
LAY0_0
  6
Continuous
 62
     0
100
AcDbLine
 10
81970.77026367191
 20
38295.6909179688
 30
0.0
 11
81919.0673828125
 21
38346.01440429689
 31
0.0
  0
LINE
  5
278
330
1E
100
AcDbEntity
  8
LAY0_0
  6
Continuous
 62
     0
100
AcDbLine
 10
81889.3371582031
 20
39759.14916992189
 30
0.0
 11
82199.81689453129
 21
39759.14916992189
 31
0.0
  0
LINE
  5
279
330
1E
100
AcDbEntity
  8
LAY0_0
  6
Continuous
 62
     0
100
AcDbLine
 10
81889.3432617188
 20
39571.5209960938
 30
0.0
 11
81889.3432617188
 21
39519.7509765625
 31
0.0
  0
LINE
  5
27A
330
1E
100
AcDbEntity
  8
LAY0_0
  6
Continuous
 62
     0
100
AcDbLine
 10
48200.0915527344
 20
53113.6535644531
 30
0.0
 11
59781.8298339844
 21
53113.6535644531
 31
0.0
  0
LINE
  5
27B
330
1E
100
AcDbEntity
  8
LAY0_0
  6
Continuous
 62
     0
100
AcDbLine
 10
51922.7905273438
 20
57277.2399902344
 30
0.0
 11
51971.7529296875
 21
57277.2399902344
 31
0.0
  0
LINE
  5
27C
330
1E
100
AcDbEntity
  8
LAY0_0
  6
CENTER
 62
     0
 48
100.0
100
AcDbLine
 10
63246.00219726559
 20
48651.4770507813
 30
0.0
 11
63246.00219726559
 21
46841.94335937499
 31
0.0
  0
LINE
  5
27D
330
1E
100
AcDbEntity
  8
LAY0_0
  6
Continuous
 62
     0
100
AcDbLine
 10
90856.0424804688
 20
47556.2316894531
 30
0.0
 11
90771.0693359375
 21
47639.97192382809
 31
0.0
  0
LINE
  5
27E
330
1E
100
AcDbEntity
  8
LAY0_0
  6
Continuous
 62
     0
100
AcDbLine
 10
51971.7529296875
 20
57277.2399902344
 30
0.0
 11
52103.1860351563
 21
57313.2080078125
 31
0.0
  0
LINE
  5
27F
330
1E
100
AcDbEntity
  8
LAY0_0
  6
Continuous
 62
     0
100
AcDbLine
 10
53990.9606933594
 20
55794.3298339844
 30
0.0
 11
54404.5959472656
 21
55794.3298339844
 31
0.0
  0
LINE
  5
280
330
1E
100
AcDbEntity
  8
LAY0_0
  6
DASHED2
 62
     0
100
AcDbLine
 10
59110.8825683594
 20
47174.4384765625
 30
0.0
 11
59109.67407226559
 21
47175.2868652344
 31
0.0
  0
LINE
  5
281
330
1E
100
AcDbEntity
  8
LAY0_0
  6
Continuous
 62
     0
100
AcDbLine
 10
54456.29882812499
 20
55746.7102050781
 30
0.0
 11
54404.5959472656
 21
55794.3298339844
 31
0.0
  0
LINE
  5
282
330
1E
100
AcDbEntity
  8
LAY0_0
  6
DASHED2
 62
     0
100
AcDbLine
 10
58902.8564453125
 20
47318.1396484375
 30
0.0
 11
59110.8825683594
 21
47174.4384765625
 31
0.0
  0
LINE
  5
283
330
1E
100
AcDbEntity
  8
LAY0_0
  6
Continuous
 62
     0
100
AcDbLine
 10
50423.3764648438
 20
56175.2746582031
 30
0.0
 11
50331.9091796875
 21
56072.7233886719
 31
0.0
  0
LINE
  5
284
330
1E
100
AcDbEntity
  8
LAY0_0
  6
Continuous
 62
     0
100
AcDbLine
 10
53209.8388671875
 20
57008.7829589844
 30
0.0
 11
53209.8388671875
 21
57084.1491699219
 31
0.0
  0
LINE
  5
285
330
1E
100
AcDbEntity
  8
LAY0_0
  6
Continuous
 62
     0
100
AcDbLine
 10
49854.6264648438
 20
59365.7653808594
 30
0.0
 11
49906.33544921879
 21
59413.3728027344
 31
0.0
  0
LINE
  5
286
330
1E
100
AcDbEntity
  8
LAY0_0
  6
Continuous
 62
     0
100
AcDbLine
 10
49958.0322265625
 20
54651.46484375
 30
0.0
 11
49958.0322265625
 21
54066.0339355469
 31
0.0
  0
LINE
  5
287
330
1E
100
AcDbEntity
  8
LAY0_0
  6
Continuous
 62
     0
100
AcDbLine
 10
86150.96435546879
 20
53770.5200195313
 30
0.0
 11
85065.18554687501
 21
53389.5629882813
 31
0.0
  0
LINE
  5
288
330
1E
100
AcDbEntity
  8
LAY0_0
  6
Continuous
 62
     0
100
AcDbLine
 10
50423.3764648438
 20
59127.65502929691
 30
0.0
 11
50023.4436035156
 21
59243.8903808594
 31
0.0
  0
LINE
  5
289
330
1E
100
AcDbEntity
  8
LAY0_0
  6
Continuous
 62
     0
100
AcDbLine
 10
60919.3237304688
 20
48889.5690917969
 30
0.0
 11
60971.02050781249
 21
48651.4770507813
 31
0.0
  0
LINE
  5
28A
330
1E
100
AcDbEntity
  8
LAY0_0
  6
Continuous
 62
     0
100
AcDbLine
 10
90160.08300781249
 20
56080.6972265244
 30
0.0
 11
81878.54003906251
 21
57107.5622558594
 31
0.0
  0
LINE
  5
28B
330
1E
100
AcDbEntity
  8
LAY0_0
  6
Continuous
 62
     0
100
AcDbLine
 10
83514.05029296879
 20
53746.7163085938
 30
0.0
 11
85065.18554687501
 21
53746.7163085938
 31
0.0
  0
LINE
  5
28C
330
1E
100
AcDbEntity
  8
LAY0_0
  6
CENTER
 62
     0
 48
100.0
100
AcDbLine
 10
88425.93994140631
 20
47127.66723632809
 30
0.0
 11
88425.93994140631
 21
48889.5690917969
 31
0.0
  0
LINE
  5
28D
330
1E
100
AcDbEntity
  8
LAY0_0
  6
Continuous
 62
     0
100
AcDbLine
 10
78293.4326171875
 20
53774.34692382809
 30
0.0
 11
78550.45166015629
 21
52431.8359375
 31
0.0
  0
LINE
  5
28E
330
1E
100
AcDbEntity
  8
LAY0_0
  6
Continuous
 62
     0
100
AcDbLine
 10
78550.45166015629
 20
52431.8359375
 30
0.0
 11
79419.94628906249
 21
53329.7119140625
 31
0.0
  0
LINE
  5
28F
330
1E
100
AcDbEntity
  8
LAY0_0
  6
Continuous
 62
     0
100
AcDbLine
 10
51772.85156249999
 20
59618.1396484375
 30
0.0
 11
51974.5056152344
 21
59556.2316894531
 31
0.0
  0
LINE
  5
290
330
1E
100
AcDbEntity
  8
LAY0_0
  6
CENTER
 62
     0
 48
100.0
100
AcDbLine
 10
58696.0388183594
 20
46841.94335937499
 30
0.0
 11
58696.0388183594
 21
48889.5690917969
 31
0.0
  0
LINE
  5
291
330
1E
100
AcDbEntity
  8
LAY0_0
  6
CENTER
 62
     0
 48
100.0
100
AcDbLine
 10
87081.64062499999
 20
48889.5690917969
 30
0.0
 11
87081.64062499999
 21
47127.66723632809
 31
0.0
  0
LINE
  5
292
330
1E
100
AcDbEntity
  8
LAY0_0
  6
Continuous
 62
     0
100
AcDbLine
 10
90856.0424804688
 20
47556.2316894531
 30
0.0
 11
90700.93994140631
 21
47413.3728027344
 31
0.0
  0
LINE
  5
293
330
1E
100
AcDbEntity
  8
LAY0_0
  6
Continuous
 62
     0
100
AcDbLine
 10
90722.69897460939
 20
47433.42285156249
 30
0.0
 11
90605.9692382813
 21
47548.4619140625
 31
0.0
  0
LINE
  5
294
330
1E
100
AcDbEntity
  8
LAY0_0
  6
Continuous
 62
     0
100
AcDbLine
 10
85065.18554687501
 20
53389.5629882813
 30
0.0
 11
83514.05029296879
 21
53389.5629882813
 31
0.0
  0
LINE
  5
295
330
1E
100
AcDbEntity
  8
LAY0_0
  6
Continuous
 62
     0
100
AcDbLine
 10
91373.0834960938
 20
49318.1335449219
 30
0.0
 11
91424.7924804688
 21
49270.5200195313
 31
0.0
  0
LINE
  5
296
330
1E
100
AcDbEntity
  8
LAY0_0
  6
CENTER
 62
     0
 48
100.0
100
AcDbLine
 10
59110.8825683594
 20
47174.4384765625
 30
0.0
 11
62054.541015625
 21
45937.1826171875
 31
0.0
  0
LINE
  5
297
330
1E
100
AcDbEntity
  8
LAY0_0
  6
DASHED2
 62
     0
100
AcDbLine
 10
79810.80322265629
 20
48937.1826171875
 30
0.0
 11
79696.66748046879
 21
49001.0498046875
 31
0.0
  0
LINE
  5
298
330
1E
100
AcDbEntity
  8
LAY0_0
  6
CENTER
 62
     0
 48
100.0
100
AcDbLine
 10
87081.64062499999
 20
47127.66723632809
 30
0.0
 11
88425.93994140631
 21
47127.66723632809
 31
0.0
  0
LINE
  5
299
330
1E
100
AcDbEntity
  8
LAY0_0
  6
Continuous
 62
     0
100
AcDbLine
 10
90649.2248535156
 20
53080.03540039059
 30
0.0
 11
90700.93994140631
 21
53032.421875
 31
0.0
  0
LINE
  5
29A
330
1E
100
AcDbEntity
  8
LAY0_0
  6
Continuous
 62
     0
100
AcDbLine
 10
51871.09375
 20
57277.9850086182
 30
0.0
 11
51871.09375
 21
57222.900390625
 31
0.0
  0
LINE
  5
29B
330
1E
100
AcDbEntity
  8
LAY0_0
  6
Continuous
 62
     0
100
AcDbLine
 10
81497.5830078125
 20
52509.6557617188
 30
0.0
 11
81491.68701171879
 21
51856.18896484379
 31
0.0
  0
LINE
  5
29C
330
1E
100
AcDbEntity
  8
LAY0_0
  6
Continuous
 62
     0
100
AcDbLine
 10
53263.91582576095
 20
60274.93735737331
 30
0.0
 11
52803.87728527333
 21
60910.4489317373
 31
0.0
  0
LINE
  5
29E
330
1E
100
AcDbEntity
  8
LAY0_0
  6
Continuous
 62
     0
100
AcDbLine
 10
89666.09497070312
 20
52889.84375
 30
0.0
 11
88528.33862304688
 21
52889.84375
 31
0.0
  0
LINE
  5
29F
330
1E
100
AcDbEntity
  8
LAY0_0
  6
Continuous
 62
     0
100
AcDbLine
 10
89666.09497070312
 20
52079.08325195309
 30
0.0
 11
89666.09497070312
 21
52889.84375
 31
0.0
  0
LINE
  5
2A0
330
1E
100
AcDbEntity
  8
LAY0_0
  6
Continuous
 62
     0
100
AcDbLine
 10
86150.96435546879
 20
54127.6672363281
 30
0.0
 11
86150.96435546879
 21
53413.37890625
 31
0.0
  0
LINE
  5
2A1
330
1E
100
AcDbEntity
  8
LAY0_0
  6
Continuous
 62
     0
100
AcDbLine
 10
85065.18554687501
 20
53746.7163085938
 30
0.0
 11
86150.96435546879
 21
54127.6672363281
 31
0.0
  0
LINE
  5
2A2
330
1E
100
AcDbEntity
  8
LAY0_0
  6
Continuous
 62
     0
100
AcDbLine
 10
88504.3579101563
 20
54771.83227539059
 30
0.0
 11
88899.6337890625
 21
54553.4057617188
 31
0.0
  0
LINE
  5
2A3
330
1E
100
AcDbEntity
  8
LAY0_0
  6
Continuous
 62
     0
100
AcDbLine
 10
51922.7905273438
 20
60651.47094726559
 30
0.0
 11
51819.384765625
 21
60746.7102050781
 31
0.0
  0
LINE
  5
2A4
330
1E
100
AcDbEntity
  8
LAY0_0
  6
Continuous
 62
     0
100
AcDbLine
 10
90700.93994140631
 20
53032.421875
 30
0.0
 11
90907.7514648438
 21
53032.421875
 31
0.0
  0
LINE
  5
2A5
330
1E
100
AcDbEntity
  8
LAY0_0
  6
Continuous
 62
     0
100
AcDbLine
 10
82376.5625
 20
52318.1396484375
 30
0.0
 11
82531.67724609379
 21
51841.9494628906
 31
0.0
  0
LINE
  5
2A6
330
1E
100
AcDbEntity
  8
LAY0_0
  6
Continuous
 62
     0
100
AcDbLine
 10
86150.96435546879
 20
54127.6672363281
 30
0.0
 11
88374.2431640625
 21
54127.6672363281
 31
0.0
  0
LINE
  5
2A7
330
1E
100
AcDbEntity
  8
LAY0_0
  6
Continuous
 62
     0
100
AcDbLine
 10
89356.6162109375
 20
56080.04150390629
 30
0.0
 11
88084.69238281251
 21
54127.6672363281
 31
0.0
  0
LINE
  5
2A8
330
1E
100
AcDbEntity
  8
LAY0_0
  6
Continuous
 62
     0
100
AcDbLine
 10
49906.33544921879
 20
59413.3728027344
 30
0.0
 11
50423.3764648438
 21
59413.3728027344
 31
0.0
  0
LINE
  5
2A9
330
1E
100
AcDbEntity
  8
LAY0_0
  6
Continuous
 62
     0
100
AcDbLine
 10
45873.4069824219
 20
49127.6611328125
 30
0.0
 11
45976.8127441406
 21
49318.1335449219
 31
0.0
  0
LINE
  5
2AB
330
1E
100
AcDbEntity
  8
LAY0_0
  6
Continuous
 62
     0
100
AcDbLine
 10
46287.04223632809
 20
49270.5200195313
 30
0.0
 11
46235.33020019531
 21
49318.1335449219
 31
0.0
  0
LINE
  5
2AC
330
1E
100
AcDbEntity
  8
LAY0_0
  6
Continuous
 62
     0
100
AcDbLine
 10
53048.2543945313
 20
55270.5200195313
 30
0.0
 11
53048.2543945313
 21
57270.5200195313
 31
0.0
  0
LINE
  5
2AD
330
1E
100
AcDbEntity
  8
LAY0_0
  6
Continuous
 62
     0
100
AcDbLine
 10
52466.1560058594
 20
54066.0339355469
 30
0.0
 11
52905.17578125
 21
54222.900390625
 31
0.0
  0
LINE
  5
2AE
330
1E
100
AcDbEntity
  8
LAY0_0
  6
Continuous
 62
     0
100
AcDbLine
 10
60092.0532226563
 20
52032.42187499999
 30
0.0
 11
60453.9794921875
 21
51889.5629882813
 31
0.0
  0
LINE
  5
2AF
330
1E
100
AcDbEntity
  8
LAY0_0
  6
CENTER
 62
     0
 48
100.0
100
AcDbLine
 10
79810.80322265629
 20
48937.1826171875
 30
0.0
 11
91424.7924804688
 21
48937.1826171875
 31
0.0
  0
LINE
  5
2B0
330
1E
100
AcDbEntity
  8
LAY0_0
  6
Continuous
 62
     0
100
AcDbLine
 10
45821.6979980469
 20
48508.6181640625
 30
0.0
 11
45443.6889648438
 21
47812.3168945313
 31
0.0
  0
LINE
  5
2B2
330
1E
100
AcDbEntity
  8
LAY0_0
  6
Continuous
 62
     0
100
AcDbLine
 10
45414.5446777344
 20
47556.2316894531
 30
0.0
 11
45925.10375976559
 21
47556.2316894531
 31
0.0
  0
LINE
  5
2B3
330
1E
100
AcDbEntity
  8
LAY0_0
  6
Continuous
 62
     0
100
AcDbLine
 10
45252.9541015625
 20
47746.70410156249
 30
0.0
 11
45252.9541015625
 21
47662.50610351559
 31
0.0
  0
LINE
  5
2B4
330
1E
100
AcDbEntity
  8
LAY0_0
  6
Continuous
 62
     0
100
AcDbLine
 10
46287.04223632809
 20
48889.5690917969
 30
0.0
 11
46287.04223632809
 21
49270.5200195313
 31
0.0
  0
LINE
  5
2B5
330
1E
100
AcDbEntity
  8
LAY0_0
  6
Continuous
 62
     0
100
AcDbLine
 10
87133.33740234379
 20
50699.0905761719
 30
0.0
 11
91269.67773437501
 21
50699.09057617191
 31
0.0
  0
LINE
  5
2B8
330
1E
100
AcDbEntity
  8
LAY0_0
  6
Continuous
 62
     0
100
AcDbLine
 10
82434.6496582031
 20
52139.7827148438
 30
0.0
 11
77610.3759765625
 21
54043.97583007809
 31
0.0
  0
LINE
  5
2B9
330
1E
100
AcDbEntity
  8
LAY0_0
  6
Continuous
 62
     0
100
AcDbLine
 10
83048.71826171879
 20
49603.8513183594
 30
0.0
 11
81911.2182617188
 21
49603.8513183594
 31
0.0
  0
LINE
  5
2BB
330
1E
100
AcDbEntity
  8
LAY0_0
  6
Continuous
 62
     0
100
AcDbLine
 10
81032.25097656251
 20
49746.7041015625
 30
0.0
 11
81032.25097656251
 21
49318.1335449219
 31
0.0
  0
LINE
  5
2BC
330
1E
100
AcDbEntity
  8
LAY0_0
  6
Continuous
 62
     0
100
AcDbLine
 10
80679.87060546879
 20
49318.1335449219
 30
0.0
 11
80679.87060546879
 21
49746.7041015625
 31
0.0
  0
LINE
  5
2BD
330
1E
100
AcDbEntity
  8
LAY0_0
  6
DASHED2
 62
     0
100
AcDbLine
 10
55800.6042480469
 20
48889.5690917969
 30
0.0
 11
55800.6042480469
 21
45937.1826171875
 31
0.0
  0
LINE
  5
2BE
330
1E
100
AcDbEntity
  8
LAY0_0
  6
Continuous
 62
     0
100
AcDbLine
 10
85685.62622070309
 20
53032.421875
 30
0.0
 11
85685.62622070309
 21
51794.3237304688
 31
0.0
  0
LINE
  5
2BF
330
1E
100
AcDbEntity
  8
LAY0_0
  6
Continuous
 62
     0
100
AcDbLine
 10
80679.87060546879
 20
49318.1335449219
 30
0.0
 11
78612.6586914063
 21
48651.4770507813
 31
0.0
  0
LINE
  5
2C0
330
1E
100
AcDbEntity
  8
LAY0_0
  6
Continuous
 62
     0
100
AcDbLine
 10
85685.62622070309
 20
52889.5629882813
 30
0.0
 11
86099.2614746094
 21
52889.5629882813
 31
0.0
  0
LINE
  5
2C1
330
1E
100
AcDbEntity
  8
LAY0_0
  6
Continuous
 62
     0
100
AcDbLine
 10
90649.2248535156
 20
53080.03540039059
 30
0.0
 11
85737.3352050781
 21
53080.03540039059
 31
0.0
  0
LINE
  5
2C2
330
1E
100
AcDbEntity
  8
LAY0_0
  6
Continuous
 62
     0
100
AcDbLine
 10
45925.10375976559
 20
48889.5690917969
 30
0.0
 11
45925.10375976559
 21
47080.0415039063
 31
0.0
  0
LINE
  5
2C4
330
1E
100
AcDbEntity
  8
LAY0_0
  6
Continuous
 62
     0
100
AcDbLine
 10
52103.1860351563
 20
57313.2080078125
 30
0.0
 11
52280.5908203125
 21
58083.28247070309
 31
0.0
  0
LINE
  5
2C5
330
1E
100
AcDbEntity
  8
LAY0_0
  6
Continuous
 62
     0
100
AcDbLine
 10
77853.2958984375
 20
54103.51562499999
 30
0.0
 11
82709.912109375
 21
53701.4526367188
 31
0.0
  0
LINE
  5
2C6
330
1E
100
AcDbEntity
  8
LAY0_0
  6
Continuous
 62
     0
100
AcDbLine
 10
91424.7924804688
 20
48002.3559570313
 30
0.0
 11
87699.29199218751
 21
45937.1826171875
 31
0.0
  0
LINE
  5
2C7
330
1E
100
AcDbEntity
  8
LAY0_0
  6
Continuous
 62
     0
100
AcDbLine
 10
83048.71826171879
 20
49603.8513183594
 30
0.0
 11
83048.71826171879
 21
49318.1335449219
 31
0.0
  0
LINE
  5
2C8
330
1E
100
AcDbEntity
  8
LAY0_0
  6
Continuous
 62
     0
100
AcDbLine
 10
45821.6979980469
 20
48984.8022460938
 30
0.0
 11
45873.4069824219
 21
49127.6611328125
 31
0.0
  0
LINE
  5
2C9
330
1E
100
AcDbEntity
  8
LAY0_0
  6
Continuous
 62
     0
100
AcDbLine
 10
50463.0401611328
 20
59413.3728027344
 30
0.0
 11
50423.3764648438
 21
59413.3728027344
 31
0.0
  0
LINE
  5
2CA
330
1E
100
AcDbEntity
  8
LAY0_0
  6
Continuous
 62
     0
100
AcDbLine
 10
50368.310546875
 20
56055.9936523438
 30
0.0
 11
50423.3764648438
 21
56117.7368164063
 31
0.0
  0
LINE
  5
2CC
330
1E
100
AcDbEntity
  8
LAY0_0
  6
Continuous
 62
     0
100
AcDbLine
 10
50023.4436035156
 20
59243.8903808594
 30
0.0
 11
49854.6264648438
 21
59365.7653808594
 31
0.0
  0
LINE
  5
2CD
330
1E
100
AcDbEntity
  8
LAY0_0
  6
Continuous
 62
     0
100
AcDbLine
 10
45414.5446777344
 20
47556.2316894531
 30
0.0
 11
45252.9541015625
 21
47662.50610351559
 31
0.0
  0
LINE
  5
2CE
330
1E
100
AcDbEntity
  8
LAY0_0
  6
Continuous
 62
     0
100
AcDbLine
 10
56067.919921875
 20
52503.81469726559
 30
0.0
 11
55588.8916015625
 21
52503.81469726559
 31
0.0
  0
LINE
  5
2CF
330
1E
100
AcDbEntity
  8
LAY0_0
  6
Continuous
 62
     0
100
AcDbLine
 10
45676.9287109375
 20
48646.7102050781
 30
0.0
 11
45252.9541015625
 21
47746.70410156249
 31
0.0
  0
LINE
  5
2D0
330
1E
100
AcDbEntity
  8
LAY0_0
  6
Continuous
 62
     0
100
AcDbLine
 10
50733.6029052734
 20
59603.857421875
 30
0.0
 11
50578.4851074219
 21
59651.46484375
 31
0.0
  0
LINE
  5
2D1
330
1E
100
AcDbEntity
  8
LAY0_0
  6
Continuous
 62
     0
100
AcDbLine
 10
52905.17578125
 20
54222.900390625
 30
0.0
 11
53040.6860351563
 21
54222.900390625
 31
0.0
  0
LINE
  5
2D2
330
1E
100
AcDbEntity
  8
LAY0_0
  6
Continuous
 62
     0
100
AcDbLine
 10
91269.67773437501
 20
51080.04150390629
 30
0.0
 11
91269.67773437501
 21
50699.09057617191
 31
0.0
  0
LINE
  5
2D4
330
1E
100
AcDbEntity
  8
LAY0_0
  6
Continuous
 62
     0
100
AcDbLine
 10
45976.8127441406
 20
49318.1335449219
 30
0.0
 11
46235.33020019531
 21
49318.1335449219
 31
0.0
  0
LINE
  5
2D5
330
1E
100
AcDbEntity
  8
LAY0_0
  6
Continuous
 62
     0
100
AcDbLine
 10
88756.84668124424
 20
54032.42797851559
 30
0.0
 11
89656.51245117189
 21
55413.3728027344
 31
0.0
  0
LINE
  5
2D6
330
1E
100
AcDbEntity
  8
LAY0_0
  6
Continuous
 62
     0
100
AcDbLine
 10
45718.2922363281
 20
48699.0905761719
 30
0.0
 11
45676.9287109375
 21
48646.7102050781
 31
0.0
  0
LINE
  5
2D7
330
1E
100
AcDbEntity
  8
LAY0_0
  6
CENTER
 62
     0
 48
1000.0
100
AcDbLine
 10
76585.693359375
 20
48651.4770507813
 30
0.0
 11
76585.693359375
 21
45937.1826171875
 31
0.0
  0
LINE
  5
2D8
330
1E
100
AcDbEntity
  8
LAY0_0
  6
CENTER
 62
     0
 48
100.0
100
AcDbLine
 10
81187.353515625
 20
47080.0415039063
 30
0.0
 11
85840.73486328129
 21
47080.0415039063
 31
0.0
  0
LINE
  5
2D9
330
1E
100
AcDbEntity
  8
LAY0_0
  6
Continuous
 62
     0
100
AcDbLine
 10
49182.4768066406
 20
57127.6611328125
 30
0.0
 11
49541.845703125
 21
56794.3359375
 31
0.0
  0
LINE
  5
2DA
330
1E
100
AcDbEntity
  8
LAY0_0
  6
Continuous
 62
     0
100
AcDbLine
 10
51767.68798828129
 20
60365.7592773438
 30
0.0
 11
51767.68798828129
 21
60318.1396484375
 31
0.0
  0
LINE
  5
2DB
330
1E
100
AcDbEntity
  8
LAY0_0
  6
Continuous
 62
     0
100
AcDbLine
 10
51922.7905273438
 20
60556.23168945309
 30
0.0
 11
51767.68798828129
 21
60365.7592773438
 31
0.0
  0
LINE
  5
2DC
330
1E
100
AcDbEntity
  8
LAY0_0
  6
Continuous
 62
     0
100
AcDbLine
 10
51767.68798828129
 20
60318.1396484375
 30
0.0
 11
53788.7084960938
 21
59746.2585449219
 31
0.0
  0
LINE
  5
2DD
330
1E
100
AcDbEntity
  8
LAY0_0
  6
Continuous
 62
     0
100
AcDbLine
 10
53791.6442871094
 20
59756.1767578125
 30
0.0
 11
82490.82117005579
 21
51967.37443323795
 31
0.0
  0
LINE
  5
2DE
330
1E
100
AcDbEntity
  8
LAY0_0
  6
Continuous
 62
     0
100
AcDbLine
 10
77051.01928710941
 20
54196.630859375
 30
0.0
 11
76624.0234375
 21
52878.02734375
 31
0.0
  0
LINE
  5
2DF
330
1E
100
AcDbEntity
  8
LAY0_0
  6
Continuous
 62
     0
100
AcDbLine
 10
82479.96826171879
 20
52651.47094726559
 30
0.0
 11
82376.5625
 21
52318.1396484375
 31
0.0
  0
LINE
  5
2E0
330
1E
100
AcDbEntity
  8
LAY0_0
  6
Continuous
 62
     0
100
AcDbLine
 10
82576.7883300781
 20
51869.1528320313
 30
0.0
 11
82430.4382324219
 21
52318.45703124999
 31
0.0
  0
LINE
  5
2E1
330
1E
100
AcDbEntity
  8
LAY0_0
  6
Continuous
 62
     0
100
AcDbLine
 10
79419.94628906249
 20
53329.7119140625
 30
0.0
 11
79700.40283203129
 21
52206.7687988281
 31
0.0
  0
LINE
  5
2E2
330
1E
100
AcDbEntity
  8
LAY0_0
  6
Continuous
 62
     0
100
AcDbLine
 10
51664.27612304691
 20
59746.71020507809
 30
0.0
 11
51664.27612304691
 21
58323.2177734375
 31
0.0
  0
LINE
  5
2E3
330
1E
100
AcDbEntity
  8
LAY0_0
  6
Continuous
 62
     0
100
AcDbLine
 10
51565.0024414063
 20
58084.1186523438
 30
0.0
 11
51637.3901367188
 21
58318.14575195309
 31
0.0
  0
LINE
  5
2E4
330
1E
100
AcDbEntity
  8
LAY0_0
  6
Continuous
 62
     0
100
AcDbLine
 10
74317.08984375
 20
54948.2543945313
 30
0.0
 11
73882.4951171875
 21
53595.6420898438
 31
0.0
  0
LINE
  5
2E5
330
1E
100
AcDbEntity
  8
LAY0_0
  6
Continuous
 62
     0
100
AcDbLine
 10
52181.3171386719
 20
59746.71020507809
 30
0.0
 11
52181.3171386719
 21
58323.1567382813
 31
0.0
  0
LINE
  5
2E6
330
1E
100
AcDbEntity
  8
LAY0_0
  6
Continuous
 62
     0
100
AcDbLine
 10
90700.93994140631
 20
51127.6550292969
 30
0.0
 11
90700.93994140631
 21
53032.421875
 31
0.0
  0
LINE
  5
2E7
330
1E
100
AcDbEntity
  8
LAY0_0
  6
Continuous
 62
     0
100
AcDbLine
 10
51354.052734375
 20
60746.7102050781
 30
0.0
 11
50268.25866699219
 21
60746.7102050781
 31
0.0
  0
LINE
  5
2E8
330
1E
100
AcDbEntity
  8
LAY0_0
  6
Continuous
 62
     0
100
AcDbLine
 10
52181.3171386719
 20
59746.71020507809
 30
0.0
 11
51974.5056152344
 21
59556.2316894531
 31
0.0
  0
LINE
  5
2E9
330
1E
100
AcDbEntity
  8
LAY0_0
  6
Continuous
 62
     0
100
AcDbLine
 10
52280.5908203125
 20
58083.28247070309
 30
0.0
 11
52207.84301757809
 21
58318.2067871094
 31
0.0
  0
LINE
  5
2EA
330
1E
100
AcDbEntity
  8
LAY0_0
  6
Continuous
 62
     0
100
AcDbLine
 10
60092.0532226563
 20
52032.42187499999
 30
0.0
 11
60092.0532226563
 21
51127.6550292969
 31
0.0
  0
LINE
  5
2EB
330
1E
100
AcDbEntity
  8
LAY0_0
  6
Continuous
 62
     0
100
AcDbLine
 10
45821.6979980469
 20
48508.6181640625
 30
0.0
 11
45925.10375976559
 21
48413.37890625
 31
0.0
  0
LINE
  5
2EC
330
1E
100
AcDbEntity
  8
LAY0_0
  6
Continuous
 62
     0
100
AcDbLine
 10
59781.8298339844
 20
51984.80224609379
 30
0.0
 11
60092.0532226563
 21
51984.80224609379
 31
0.0
  0
LINE
  5
2ED
330
1E
100
AcDbEntity
  8
LAY0_0
  6
Continuous
 62
     0
100
AcDbLine
 10
81894.97680664059
 20
57192.9504394531
 30
0.0
 11
90160.08300781249
 21
56440.8115625382
 31
0.0
  0
LINE
  5
2EE
330
1E
100
AcDbEntity
  8
LAY0_0
  6
Continuous
 62
     0
100
AcDbLine
 10
85685.62622070309
 20
52413.3666992188
 30
0.0
 11
86099.2614746094
 21
52413.3666992188
 31
0.0
  0
LINE
  5
2EF
330
1E
100
AcDbEntity
  8
LAY0_0
  6
Continuous
 62
     0
100
AcDbLine
 10
82799.4750976563
 20
53768.5791015625
 30
0.0
 11
83514.05029296879
 21
53705.10864257809
 31
0.0
  0
LINE
  5
2F0
330
1E
100
AcDbEntity
  8
LAY0_0
  6
Continuous
 62
     0
100
AcDbLine
 10
51565.0024414063
 20
58084.1186523438
 30
0.0
 11
51742.3950195313
 21
57313.2080078125
 31
0.0
  0
LINE
  5
2F1
330
1E
100
AcDbEntity
  8
LAY0_0
  6
Continuous
 62
     0
100
AcDbLine
 10
51871.09375
 20
57222.900390625
 30
0.0
 11
51819.384765625
 21
57032.4340820313
 31
0.0
  0
LINE
  5
2F2
330
1E
100
AcDbEntity
  8
LAY0_0
  6
Continuous
 62
     0
100
AcDbLine
 10
59213.0798339844
 20
51484.8083496094
 30
0.0
 11
60453.9794921875
 21
51484.8083496094
 31
0.0
  0
LINE
  5
2F3
330
1E
100
AcDbEntity
  8
LAY0_0
  6
Continuous
 62
     0
100
AcDbLine
 10
81807.8125
 20
51794.3237304688
 30
0.0
 11
89873.6572265625
 21
51794.3237304688
 31
0.0
  0
LINE
  5
2F4
330
1E
100
AcDbEntity
  8
LAY0_0
  6
Continuous
 62
     0
100
AcDbLine
 10
76840.05126953129
 20
54254.5837402344
 30
0.0
 11
76412.2253417969
 21
52933.47167968749
 31
0.0
  0
LINE
  5
2F5
330
1E
100
AcDbEntity
  8
LAY0_0
  6
Continuous
 62
     0
100
AcDbLine
 10
80460.400390625
 20
52919.04296874999
 30
0.0
 11
80664.4409179688
 21
52018.1091308594
 31
0.0
  0
LINE
  5
2F6
330
1E
100
AcDbEntity
  8
LAY0_0
  6
Continuous
 62
     0
100
AcDbLine
 10
79700.40283203129
 20
52206.7687988281
 30
0.0
 11
80460.400390625
 21
52919.04296874999
 31
0.0
  0
LINE
  5
2F7
330
1E
100
AcDbEntity
  8
LAY0_0
  6
Continuous
 62
     0
100
AcDbLine
 10
81807.8125
 20
51794.3237304688
 30
0.0
 11
81807.8125
 21
50937.1887207031
 31
0.0
  0
LINE
  5
2F8
330
1E
100
AcDbEntity
  8
LAY0_0
  6
Continuous
 62
     0
100
AcDbLine
 10
45443.6889648438
 20
47761.279296875
 30
0.0
 11
45443.6889648438
 21
47812.3168945313
 31
0.0
  0
LINE
  5
2F9
330
1E
100
AcDbEntity
  8
LAY0_0
  6
Continuous
 62
     0
100
AcDbLine
 10
51664.27612304691
 20
59746.71020507809
 30
0.0
 11
51705.6396484375
 21
59989.56298828129
 31
0.0
  0
LINE
  5
2FA
330
1E
100
AcDbEntity
  8
LAY0_0
  6
Continuous
 62
     0
100
AcDbLine
 10
45443.6889648438
 20
47761.279296875
 30
0.0
 11
45478.63769531249
 21
47739.4897460938
 31
0.0
  0
LINE
  5
2FB
330
1E
100
AcDbEntity
  8
LAY0_0
  6
Continuous
 62
     0
100
AcDbLine
 10
84444.72656249999
 20
50699.09057617191
 30
0.0
 11
87133.33740234379
 21
50699.09057617191
 31
0.0
  0
LINE
  5
2FC
330
1E
100
AcDbEntity
  8
LAY0_0
  6
Continuous
 62
     0
100
AcDbLine
 10
77671.4782714844
 20
54222.900390625
 30
0.0
 11
77774.89013671879
 21
54318.1396484375
 31
0.0
  0
LINE
  5
2FE
330
1E
100
AcDbEntity
  8
LAY0_0
  6
Continuous
 62
     0
100
AcDbLine
 10
90899.7802734375
 20
47116.6625976563
 30
0.0
 11
90390.70434570311
 21
47222.90649414059
 31
0.0
  0
LINE
  5
2FF
330
1E
100
AcDbEntity
  8
LAY0_0
  6
Continuous
 62
     0
100
AcDbLine
 10
89997.76578425247
 20
56222.900390625
 30
0.0
 11
88570.71083665175
 21
54032.4279785156
 31
0.0
  0
LINE
  5
300
330
1E
100
AcDbEntity
  8
LAY0_0
  6
Continuous
 62
     0
100
AcDbLine
 10
91114.5629882813
 20
47032.4157714844
 30
0.0
 11
91011.15722656249
 21
47032.4157714844
 31
0.0
  0
LINE
  5
302
330
1E
100
AcDbEntity
  8
LAY0_0
  6
Continuous
 62
     0
100
AcDbLine
 10
89356.6162109375
 20
56080.04150390629
 30
0.0
 11
89759.61644793843
 21
55857.3506603675
 31
0.0
  0
LINE
  5
304
330
1E
100
AcDbEntity
  8
LAY0_0
  6
Continuous
 62
     0
100
AcDbLine
 10
84579.95002720076
 20
50699.09057617191
 30
0.0
 11
84118.59741210941
 21
49318.1335449219
 31
0.0
  0
LINE
  5
305
330
1E
100
AcDbEntity
  8
LAY0_0
  6
Continuous
 62
     0
100
AcDbLine
 10
86998.11258129335
 20
50699.09057617191
 30
0.0
 11
87459.4848632813
 21
49318.1335449219
 31
0.0
  0
LINE
  5
306
330
1E
100
AcDbEntity
  8
LAY0_0
  6
Continuous
 62
     0
100
AcDbLine
 10
82430.4382324219
 20
52318.45703124999
 30
0.0
 11
82534.7839355469
 21
52654.8278808594
 31
0.0
  0
LINE
  5
307
330
1E
100
AcDbEntity
  8
LAY0_0
  6
Continuous
 62
     0
100
AcDbLine
 10
90339.00146484381
 20
53413.37890625
 30
0.0
 11
90339.00146484382
 21
55413.37280273441
 31
0.0
  0
LINE
  5
308
330
1E
100
AcDbEntity
  8
LAY0_0
  6
Continuous
 62
     0
100
AcDbLine
 10
90390.70434570311
 20
47270.5200195313
 30
0.0
 11
90700.93994140631
 21
47413.3728027344
 31
0.0
  0
LINE
  5
309
330
1E
100
AcDbEntity
  8
LAY0_0
  6
Continuous
 62
     0
100
AcDbLine
 10
90390.70434570311
 20
47222.90649414059
 30
0.0
 11
90390.70434570311
 21
47270.5200195313
 31
0.0
  0
LINE
  5
30A
330
1E
100
AcDbEntity
  8
LAY0_0
  6
Continuous
 62
     0
100
AcDbLine
 10
87593.7744140625
 20
49699.3835449219
 30
0.0
 11
87860.22338867191
 21
49699.3835449219
 31
0.0
  0
LINE
  5
30B
330
1E
100
AcDbEntity
  8
LAY0_0
  6
Continuous
 62
     0
100
AcDbLine
 10
84651.55029296878
 20
50699.09057617191
 30
0.0
 11
85737.3352050781
 21
50699.09057617191
 31
0.0
  0
LINE
  5
30C
330
1E
100
AcDbEntity
  8
LAY0_0
  6
Continuous
 62
     0
100
AcDbLine
 10
53008.5815429688
 20
55222.8942871094
 30
0.0
 11
53008.5815429688
 21
57270.5200195313
 31
0.0
  0
LINE
  5
30D
330
1E
100
AcDbEntity
  8
LAY0_0
  6
Continuous
 62
     0
100
AcDbLine
 10
49541.845703125
 20
55542.7307128906
 30
0.0
 11
49541.845703125
 21
56794.3359375
 31
0.0
  0
LINE
  5
30E
330
1E
100
AcDbEntity
  8
LAY0_0
  6
Continuous
 62
     0
100
AcDbLine
 10
49596.10900878909
 20
53351.7395019531
 30
0.0
 11
49596.10900878909
 21
51841.9494628906
 31
0.0
  0
LINE
  5
30F
330
1E
100
AcDbEntity
  8
LAY0_0
  6
Continuous
 62
     0
100
AcDbLine
 10
53784.1430664063
 20
55222.8942871094
 30
0.0
 11
53784.1430664063
 21
55080.0415039063
 31
0.0
  0
LINE
  5
311
330
1E
100
AcDbEntity
  8
LAY0_0
  6
Continuous
 62
     0
100
AcDbLine
 10
77671.4782714844
 20
54222.900390625
 30
0.0
 11
77671.4782714844
 21
54175.2746582031
 31
0.0
  0
LINE
  5
312
330
1E
100
AcDbEntity
  8
LAY0_0
  6
Continuous
 62
     0
100
AcDbLine
 10
49541.845703125
 20
57460.9985351563
 30
0.0
 11
49541.845703125
 21
58646.2158203125
 31
0.0
  0
LINE
  5
314
330
1E
100
AcDbEntity
  8
LAY0_0
  6
Continuous
 62
     0
100
AcDbLine
 10
51767.68798828129
 20
60318.1396484375
 30
0.0
 11
51715.97290039059
 21
60270.5261230469
 31
0.0
  0
LINE
  5
315
330
1E
100
AcDbEntity
  8
LAY0_0
  6
DASHED2
 62
     0
 48
100.0
100
AcDbLine
 10
85789.03198242191
 20
50651.46484375
 30
0.0
 11
85789.03198242191
 21
49318.1335449219
 31
0.0
  0
LINE
  5
317
330
1E
100
AcDbEntity
  8
LAY0_0
  6
Continuous
 62
     0
100
AcDbLine
 10
49541.845703125
 20
57460.9985351563
 30
0.0
 11
49182.4768066406
 21
57127.6611328125
 31
0.0
  0
LINE
  5
318
330
1E
100
AcDbEntity
  8
LAY0_0
  6
Continuous
 62
     0
100
AcDbLine
 10
53008.5815429688
 20
55270.5200195313
 30
0.0
 11
53732.4340820313
 21
55270.5200195313
 31
0.0
  0
LINE
  5
319
330
1E
100
AcDbEntity
  8
LAY0_0
  6
Continuous
 62
     0
100
AcDbLine
 10
59407.7514648438
 20
50126.3793945313
 30
0.0
 11
59407.7514648438
 21
50889.5629882813
 31
0.0
  0
LINE
  5
31A
330
1E
100
AcDbEntity
  8
LAY0_0
  6
Continuous
 62
     0
100
AcDbLine
 10
53939.2944335938
 20
55413.3728027344
 30
0.0
 11
54074.3896484375
 21
55080.0415039063
 31
0.0
  0
LINE
  5
31B
330
1E
100
AcDbEntity
  8
LAY0_0
  6
CENTER
 62
     0
 48
100.0
100
AcDbLine
 10
58696.0388183594
 20
46841.94335937499
 30
0.0
 11
63246.00219726559
 21
46841.94335937499
 31
0.0
  0
LINE
  5
31C
330
1E
100
AcDbEntity
  8
LAY0_0
  6
Continuous
 62
     0
100
AcDbLine
 10
53629.1259765625
 20
55413.3728027344
 30
0.0
 11
53563.7634277344
 21
55270.5200195313
 31
0.0
  0
LINE
  5
31D
330
1E
100
AcDbEntity
  8
LAY0_0
  6
Continuous
 62
     0
100
AcDbLine
 10
63012.57934570309
 20
58035.9497070313
 30
0.0
 11
62565.1611328125
 21
56627.0385742188
 31
0.0
  0
LINE
  5
31E
330
1E
100
AcDbEntity
  8
LAY0_0
  6
Continuous
 62
     0
100
AcDbLine
 10
53629.1259765625
 20
55777.0141601563
 30
0.0
 11
53629.1259765625
 21
55413.3728027344
 31
0.0
  0
LINE
  5
31F
330
1E
100
AcDbEntity
  8
LAY0_0
  6
Continuous
 62
     0
100
AcDbLine
 10
89873.6572265625
 20
51794.3237304688
 30
0.0
 11
89873.65722656251
 21
51067.7734375
 31
0.0
  0
LINE
  5
320
330
1E
100
AcDbEntity
  8
LAY0_0
  6
CENTER
 62
     0
 48
100.0
100
AcDbLine
 10
58902.8564453125
 20
48889.5690917969
 30
0.0
 11
58902.8564453125
 21
47318.1396484375
 31
0.0
  0
LINE
  5
321
330
1E
100
AcDbEntity
  8
LAY0_0
  6
Continuous
 62
     0
100
AcDbLine
 10
53112.158203125
 20
55746.7102050781
 30
0.0
 11
54456.29882812499
 21
55746.7102050781
 31
0.0
  0
LINE
  5
322
330
1E
100
AcDbEntity
  8
LAY0_0
  6
Continuous
 62
     0
100
AcDbLine
 10
53939.2944335938
 20
55746.7102050781
 30
0.0
 11
53990.9606933594
 21
55794.3298339844
 31
0.0
  0
LINE
  5
324
330
1E
100
AcDbEntity
  8
LAY0_0
  6
Continuous
 62
     0
100
AcDbLine
 10
88528.33862304688
 20
52079.08325195309
 30
0.0
 11
89666.09497070312
 21
52079.08325195309
 31
0.0
  0
LINE
  5
325
330
1E
100
AcDbEntity
  8
LAY0_0
  6
Continuous
 62
     0
100
AcDbLine
 10
58696.0388183594
 20
50889.5629882813
 30
0.0
 11
58696.0388183594
 21
49689.0686035156
 31
0.0
  0
LINE
  5
326
330
1E
100
AcDbEntity
  8
LAY0_0
  6
Continuous
 62
     0
100
AcDbLine
 10
51273.6083984375
 20
60550.048828125
 30
0.0
 11
51405.7556152344
 21
60651.47094726559
 31
0.0
  0
LINE
  5
327
330
1E
100
AcDbEntity
  8
LAY0_0
  6
Continuous
 62
     0
100
AcDbLine
 10
85685.62622070309
 20
52175.2807617188
 30
0.0
 11
86099.2614746094
 21
52175.2807617188
 31
0.0
  0
LINE
  5
328
330
1E
100
AcDbEntity
  8
LAY0_0
  6
Continuous
 62
     0
100
AcDbLine
 10
85685.62622070309
 20
51937.1826171875
 30
0.0
 11
86099.2614746094
 21
51937.1826171875
 31
0.0
  0
LINE
  5
329
330
1E
100
AcDbEntity
  8
LAY0_0
  6
Continuous
 62
     0
100
AcDbLine
 10
45478.63769531249
 20
47739.4897460938
 30
0.0
 11
45925.10375976559
 21
47693.798828125
 31
0.0
  0
LINE
  5
32B
330
1E
100
AcDbEntity
  8
LAY0_0
  6
Continuous
 62
     0
100
AcDbLine
 10
53209.8388671875
 20
56333.79516601559
 30
0.0
 11
53209.8388671875
 21
56258.4167480469
 31
0.0
  0
LINE
  5
32C
330
1E
100
AcDbEntity
  8
LAY0_0
  6
Continuous
 62
     0
100
AcDbLine
 10
91269.67773437501
 20
47508.6181640625
 30
0.0
 11
91217.9748535156
 21
47127.66723632809
 31
0.0
  0
LINE
  5
32E
330
1E
100
AcDbEntity
  8
LAY0_0
  6
Continuous
 62
     0
100
AcDbLine
 10
53732.4340820313
 20
55270.5200195313
 30
0.0
 11
53784.1430664063
 21
55222.8942871094
 31
0.0
  0
LINE
  5
32F
330
1E
100
AcDbEntity
  8
LAY0_0
  6
Continuous
 62
     0
100
AcDbLine
 10
89470.38574218749
 20
55413.3728027344
 30
0.0
 11
90700.93994140631
 21
55413.3728027344
 31
0.0
  0
LINE
  5
330
330
1E
100
AcDbEntity
  8
LAY0_0
  6
Continuous
 62
     0
100
AcDbLine
 10
47476.2329101563
 20
50889.5629882813
 30
0.0
 11
60453.9794921875
 21
50889.5629882813
 31
0.0
  0
LINE
  5
331
330
1E
100
AcDbEntity
  8
LAY0_0
  6
Continuous
 62
     0
100
AcDbLine
 10
51715.97290039059
 20
60270.5261230469
 30
0.0
 11
51255.66406249999
 21
60536.28540039059
 31
0.0
  0
LINE
  5
332
330
1E
100
AcDbEntity
  8
LAY0_0
  6
Continuous
 62
     0
100
AcDbLine
 10
81807.8125
 20
51431.05468749999
 30
0.0
 11
89873.6572265625
 21
51431.05468749999
 31
0.0
  0
LINE
  5
333
330
1E
100
AcDbEntity
  8
LAY0_0
  6
Continuous
 62
     0
100
AcDbLine
 10
49901.2390136719
 20
57127.6611328125
 30
0.0
 11
49541.845703125
 21
56794.3359375
 31
0.0
  0
LINE
  5
334
330
1E
100
AcDbEntity
  8
LAY0_0
  6
Continuous
 62
     0
100
AcDbLine
 10
53008.5815429688
 20
56271.95434570309
 30
0.0
 11
52878.4301757813
 21
56271.95434570309
 31
0.0
  0
LINE
  5
336
330
1E
100
AcDbEntity
  8
LAY0_0
  6
Continuous
 62
     0
100
AcDbLine
 10
52878.4301757813
 20
55360.89477539059
 30
0.0
 11
53008.5815429688
 21
55360.89477539059
 31
0.0
  0
LINE
  5
337
330
1E
100
AcDbEntity
  8
LAY0_0
  6
Continuous
 62
     0
100
AcDbLine
 10
90959.4543457031
 20
53413.37890625
 30
0.0
 11
91217.9748535156
 21
53318.1396484375
 31
0.0
  0
LINE
  5
338
330
1E
100
AcDbEntity
  8
LAY0_0
  6
Continuous
 62
     0
100
AcDbLine
 10
51715.97290039059
 20
59651.46484375
 30
0.0
 11
51664.27612304691
 21
59746.71020507809
 31
0.0
  0
LINE
  5
339
330
1E
100
AcDbEntity
  8
LAY0_0
  6
Continuous
 62
     0
100
AcDbLine
 10
51742.3950195313
 20
57313.2080078125
 30
0.0
 11
51873.8159179688
 21
57277.2399902344
 31
0.0
  0
LINE
  5
33A
330
1E
100
AcDbEntity
  8
LAY0_0
  6
Continuous
 62
     0
100
AcDbLine
 10
89821.96655273439
 20
53770.5200195313
 30
0.0
 11
90907.7514648438
 21
53770.5200195313
 31
0.0
  0
LINE
  5
33B
330
1E
100
AcDbEntity
  8
LAY0_0
  6
Continuous
 62
     0
100
AcDbLine
 10
89819.0551757813
 20
54127.6672363281
 30
0.0
 11
89819.0551757813
 21
53413.37890625
 31
0.0
  0
LINE
  5
33C
330
1E
100
AcDbEntity
  8
LAY0_0
  6
Continuous
 62
     0
100
AcDbLine
 10
51819.384765625
 20
60127.6550292969
 30
0.0
 11
51705.6396484375
 21
59989.56298828129
 31
0.0
  0
LINE
  5
33D
330
1E
100
AcDbEntity
  8
LAY0_0
  6
Continuous
 62
     0
100
AcDbLine
 10
51405.7556152344
 20
60699.0966796875
 30
0.0
 11
51354.052734375
 21
60746.7102050781
 31
0.0
  0
LINE
  5
341
330
1E
100
AcDbEntity
  8
LAY0_0
  6
Continuous
 62
     0
100
AcDbLine
 10
77257.8491210938
 20
52712.12158203129
 30
0.0
 11
78293.4326171875
 21
53774.34692382809
 31
0.0
  0
LINE
  5
342
330
1E
100
AcDbEntity
  8
LAY0_0
  6
Continuous
 62
     0
100
AcDbLine
 10
51637.3901367188
 20
58318.14575195309
 30
0.0
 11
51922.7905273438
 21
58372.03979492191
 31
0.0
  0
LINE
  5
343
330
1E
100
AcDbEntity
  8
LAY0_0
  6
Continuous
 62
     0
100
AcDbLine
 10
59653.60570827143
 20
54661.94555584534
 30
0.0
 11
58880.24291992191
 21
53351.7395019531
 31
0.0
  0
LINE
  5
344
330
1E
100
AcDbEntity
  8
LAY0_0
  6
Continuous
 62
     0
100
AcDbLine
 10
90907.7514648438
 20
53413.37890625
 30
0.0
 11
86150.96435546879
 21
53413.37890625
 31
0.0
  0
LINE
  5
345
330
1E
100
AcDbEntity
  8
LAY0_0
  6
Continuous
 62
     0
100
AcDbLine
 10
86150.96435546879
 20
53770.5200195313
 30
0.0
 11
88374.2431640625
 21
53770.5200195313
 31
0.0
  0
LINE
  5
346
330
1E
100
AcDbEntity
  8
LAY0_0
  6
Continuous
 62
     0
100
AcDbLine
 10
88964.27001953131
 20
55477.8015136719
 30
0.0
 11
89359.55810546881
 21
55259.3688964844
 31
0.0
  0
LINE
  5
348
330
1E
100
AcDbEntity
  8
LAY0_0
  6
Continuous
 62
     0
100
AcDbLine
 10
87960.6079101563
 20
51067.7734375
 30
0.0
 11
87960.6079101563
 21
51794.3237304688
 31
0.0
  0
LINE
  5
349
330
1E
100
AcDbEntity
  8
LAY0_0
  6
Continuous
 62
     0
100
AcDbLine
 10
50268.25866699219
 20
60746.7102050781
 30
0.0
 11
50475.07934570309
 21
59937.18872070309
 31
0.0
  0
LINE
  5
34A
330
1E
100
AcDbEntity
  8
LAY0_0
  6
Continuous
 62
     0
100
AcDbLine
 10
89819.0551757813
 20
54127.6672363281
 30
0.0
 11
90907.7514648438
 21
54127.6672363281
 31
0.0
  0
LINE
  5
34B
330
1E
100
AcDbEntity
  8
LAY0_0
  6
Continuous
 62
     0
100
AcDbLine
 10
86099.2614746094
 20
53413.37890625
 30
0.0
 11
84910.05859375
 21
52996.13637498034
 31
0.0
  0
LINE
  5
34C
330
1E
100
AcDbEntity
  8
LAY0_0
  6
Continuous
 62
     0
100
AcDbLine
 10
51095.5261230469
 20
60413.3728027344
 30
0.0
 11
51273.6083984375
 21
60550.048828125
 31
0.0
  0
LINE
  5
34D
330
1E
100
AcDbEntity
  8
LAY0_0
  6
Continuous
 62
     0
100
AcDbLine
 10
49901.2390136719
 20
57127.6611328125
 30
0.0
 11
49541.845703125
 21
57460.9985351563
 31
0.0
  0
LINE
  5
34E
330
1E
100
AcDbEntity
  8
LAY0_0
  6
Continuous
 62
     0
100
AcDbLine
 10
51715.97290039059
 20
60270.5261230469
 30
0.0
 11
51715.97290039059
 21
60222.8942871094
 31
0.0
  0
LINE
  5
350
330
1E
100
AcDbEntity
  8
LAY0_0
  6
Continuous
 62
     0
100
AcDbLine
 10
51922.7905273438
 20
58372.03979492191
 30
0.0
 11
52207.84301757809
 21
58318.2067871094
 31
0.0
  0
LINE
  5
351
330
1E
100
AcDbEntity
  8
LAY0_0
  6
Continuous
 62
     0
100
AcDbLine
 10
85789.03198242191
 20
50937.1887207031
 30
0.0
 11
85789.03198242191
 21
51794.3237304688
 31
0.0
  0
LINE
  5
352
330
1E
100
AcDbEntity
  8
LAY0_0
  6
Continuous
 62
     0
100
AcDbLine
 10
51138.3178710938
 20
60446.2158203125
 30
0.0
 11
50268.25866699219
 21
60746.7102050781
 31
0.0
  0
LINE
  5
353
330
1E
100
AcDbEntity
  8
LAY0_0
  6
Continuous
 62
     0
100
AcDbLine
 10
84031.09130859379
 20
53746.7163085938
 30
0.0
 11
84031.09130859379
 21
52883.2153320313
 31
0.0
  0
LINE
  5
354
330
1E
100
AcDbEntity
  8
LAY0_0
  6
Continuous
 62
     0
100
AcDbLine
 10
89749.5788574219
 20
55841.943359375
 30
0.0
 11
90700.93994140631
 21
55841.943359375
 31
0.0
  0
LINE
  5
355
330
1E
100
AcDbEntity
  8
LAY0_0
  6
Continuous
 62
     0
100
AcDbLine
 10
77774.89013671879
 20
54318.1396484375
 30
0.0
 11
82726.17797851559
 21
53848.4558105469
 31
0.0
  0
LINE
  5
356
330
1E
100
AcDbEntity
  8
LAY0_0
  6
Continuous
 62
     0
100
AcDbLine
 10
85065.18554687501
 20
53746.7163085938
 30
0.0
 11
85065.18554687501
 21
53050.56406232605
 31
0.0
  0
LINE
  5
357
330
1E
100
AcDbEntity
  8
LAY0_0
  6
Continuous
 62
     0
100
AcDbLine
 10
87858.5021972656
 20
54127.6672363281
 30
0.0
 11
87858.5021972656
 21
53413.37890625
 31
0.0
  0
LINE
  5
359
330
1E
100
AcDbEntity
  8
LAY0_0
  6
Continuous
 62
     0
100
AcDbLine
 10
86719.70214843749
 20
51067.7734375
 30
0.0
 11
86719.70214843749
 21
51794.3237304688
 31
0.0
  0
LINE
  5
35A
330
1E
100
AcDbEntity
  8
LAY0_0
  6
Continuous
 62
     0
100
AcDbLine
 10
80679.87060546879
 20
49318.1335449219
 30
0.0
 11
91373.0834960938
 21
49318.1335449219
 31
0.0
  0
LINE
  5
35C
330
1E
100
AcDbEntity
  8
LAY0_0
  6
Continuous
 62
     0
100
AcDbLine
 10
91217.9748535156
 20
47127.66723632809
 30
0.0
 11
91114.5629882813
 21
47032.4157714844
 31
0.0
  0
LINE
  5
35D
330
1E
100
AcDbEntity
  8
LAY0_0
  6
Continuous
 62
     0
100
AcDbLine
 10
50423.3764648438
 20
54651.46484375
 30
0.0
 11
50423.3764648438
 21
59413.3728027344
 31
0.0
  0
LINE
  5
35E
330
1E
100
AcDbEntity
  8
LAY0_0
  6
Continuous
 62
     0
100
AcDbLine
 10
87032.1838378906
 20
54127.6672363281
 30
0.0
 11
87032.1838378906
 21
53413.37890625
 31
0.0
  0
LINE
  5
360
330
1E
100
AcDbEntity
  8
LAY0_0
  6
Continuous
 62
     0
100
AcDbLine
 10
85013.47763165464
 20
53032.42187500001
 30
0.0
 11
85685.62622070309
 21
53032.421875
 31
0.0
  0
LINE
  5
361
330
1E
100
AcDbEntity
  8
LAY0_0
  6
Continuous
 62
     0
100
AcDbLine
 10
91011.15722656249
 20
47032.4157714844
 30
0.0
 11
90899.7802734375
 21
47116.6625976563
 31
0.0
  0
LINE
  5
362
330
1E
100
AcDbEntity
  8
LAY0_0
  6
Continuous
 62
     0
100
AcDbLine
 10
90132.18994140631
 20
55413.3728027344
 30
0.0
 11
90132.18994140631
 21
55841.943359375
 31
0.0
  0
LINE
  5
364
330
1E
100
AcDbEntity
  8
LAY0_0
  6
Continuous
 62
     0
100
AcDbLine
 10
90700.93994140631
 20
55413.3728027344
 30
0.0
 11
90700.93994140631
 21
56222.900390625
 31
0.0
  0
LINE
  5
365
330
1E
100
AcDbEntity
  8
LAY0_0
  6
Continuous
 62
     0
100
AcDbLine
 10
51922.7905273438
 20
60651.47094726559
 30
0.0
 11
51819.384765625
 21
60746.7102050781
 31
0.0
  0
LINE
  5
366
330
1E
100
AcDbEntity
  8
LAY0_0
  6
Continuous
 62
     0
100
AcDbLine
 10
83203.82080078129
 20
51794.3237304688
 30
0.0
 11
83203.82080078129
 21
51067.7734375
 31
0.0
  0
LINE
  5
367
330
1E
100
AcDbEntity
  8
LAY0_0
  6
Continuous
 62
     0
100
AcDbLine
 10
82635.07080078129
 20
51794.3237304688
 30
0.0
 11
82635.07080078129
 21
51067.7734375
 31
0.0
  0
LINE
  5
368
330
1E
100
AcDbEntity
  8
LAY0_0
  6
Continuous
 62
     0
100
AcDbLine
 10
84961.767578125
 20
51067.7734375
 30
0.0
 11
84961.767578125
 21
51794.3237304688
 31
0.0
  0
LINE
  5
36A
330
1E
100
AcDbEntity
  8
LAY0_0
  6
Continuous
 62
     0
100
AcDbLine
 10
91217.9748535156
 20
51127.6550292969
 30
0.0
 11
91217.9748535156
 21
53318.1396484375
 31
0.0
  0
LINE
  5
36B
330
1E
100
AcDbEntity
  8
LAY0_0
  6
Continuous
 62
     0
100
AcDbLine
 10
51715.97290039059
 20
59651.46484375
 30
0.0
 11
51772.85156249999
 21
59618.1396484375
 31
0.0
  0
LINE
  5
36C
330
1E
100
AcDbEntity
  8
LAY0_0
  6
Continuous
 62
     0
100
AcDbLine
 10
81807.8125
 20
51067.7734375
 30
0.0
 11
89873.6572265625
 21
51067.7734375
 31
0.0
  0
LINE
  5
36D
330
1E
100
AcDbEntity
  8
LAY0_0
  6
Continuous
 62
     0
100
AcDbLine
 10
85065.18554687501
 20
53349.8718261719
 30
0.0
 11
85065.18554687501
 21
53361.81640625
 31
0.0
  0
LINE
  5
36E
330
1E
100
AcDbEntity
  8
LAY0_0
  6
Continuous
 62
     0
100
AcDbLine
 10
60453.9794921875
 20
51127.6550292969
 30
0.0
 11
60453.9794921875
 21
51841.9494628906
 31
0.0
  0
LINE
  5
36F
330
1E
100
AcDbEntity
  8
LAY0_0
  6
Continuous
 62
     0
100
AcDbLine
 10
51873.8159179688
 20
57277.2399902344
 30
0.0
 11
51922.7905273438
 21
57277.2399902344
 31
0.0
  0
LINE
  5
370
330
1E
100
AcDbEntity
  8
LAY0_0
  6
Continuous
 62
     0
100
AcDbLine
 10
89097.216796875
 20
52079.08325195309
 30
0.0
 11
89097.216796875
 21
52889.84375
 31
0.0
  0
LINE
  5
371
330
1E
100
AcDbEntity
  8
LAY0_0
  6
Continuous
 62
     0
100
AcDbLine
 10
60453.9794921875
 20
51889.5629882813
 30
0.0
 11
60453.9794921875
 21
51841.9494628906
 31
0.0
  0
LINE
  5
372
330
1E
100
AcDbEntity
  8
LAY0_0
  6
Continuous
 62
     0
100
AcDbLine
 10
51974.5056152344
 20
60651.47094726559
 30
0.0
 11
52474.09925301667
 21
60820.79787584724
 31
0.0
  0
LINE
  5
373
330
1E
100
AcDbEntity
  8
LAY0_0
  6
Continuous
 62
     0
100
AcDbLine
 10
51819.384765625
 20
60746.7102050781
 30
0.0
 11
51457.45849609379
 21
60699.0966796875
 31
0.0
  0
LINE
  5
374
330
1E
100
AcDbEntity
  8
LAY0_0
  6
Continuous
 62
     0
100
AcDbLine
 10
88528.33862304688
 20
52889.84375
 30
0.0
 11
88528.33862304688
 21
52079.08325195309
 31
0.0
  0
LINE
  5
375
330
1E
100
AcDbEntity
  8
LAY0_0
  6
Continuous
 62
     0
100
AcDbLine
 10
84910.05859375
 20
52889.5629882813
 30
0.0
 11
84910.05859375
 21
51794.3237304688
 31
0.0
  0
LINE
  5
376
330
1E
100
AcDbEntity
  8
LAY0_0
  6
Continuous
 62
     0
100
AcDbLine
 10
82479.96826171879
 20
52699.09667968749
 30
0.0
 11
82583.36181640629
 21
52794.3298339844
 31
0.0
  0
LINE
  5
377
330
1E
100
AcDbEntity
  8
LAY0_0
  6
Continuous
 62
     0
100
AcDbLine
 10
54663.1164550781
 20
54794.3237304688
 30
0.0
 11
54559.7106933594
 21
54270.5200195313
 31
0.0
  0
LINE
  5
378
330
1E
100
AcDbEntity
  8
LAY0_0
  6
Continuous
 62
     0
100
AcDbLine
 10
54663.1164550781
 20
54984.80834960941
 30
0.0
 11
53008.5815429688
 21
54984.80834960941
 31
0.0
  0
LINE
  5
379
330
1E
100
AcDbEntity
  8
LAY0_0
  6
Continuous
 62
     0
100
AcDbLine
 10
53215.39916992191
 20
54215.7775878906
 30
0.0
 11
53784.1430664063
 21
54215.7775878906
 31
0.0
  0
LINE
  5
37A
330
1E
100
AcDbEntity
  8
LAY0_0
  6
Continuous
 62
     0
100
AcDbLine
 10
54559.7106933594
 20
54066.0339355469
 30
0.0
 11
54559.7106933594
 21
53351.7395019531
 31
0.0
  0
LINE
  5
37B
330
1E
100
AcDbEntity
  8
LAY0_0
  6
Continuous
 62
     0
100
AcDbLine
 10
53577.3315429688
 20
54066.0339355469
 30
0.0
 11
53577.3315429688
 21
53351.7395019531
 31
0.0
  0
LINE
  5
37C
330
1E
100
AcDbEntity
  8
LAY0_0
  6
Continuous
 62
     0
100
AcDbLine
 10
53215.39916992191
 20
54882.4462890625
 30
0.0
 11
53784.1430664063
 21
54882.4462890625
 31
0.0
  0
LINE
  5
37D
330
1E
100
AcDbEntity
  8
LAY0_0
  6
Continuous
 62
     0
100
AcDbLine
 10
54663.1164550781
 20
54794.3237304688
 30
0.0
 11
54611.40747070309
 21
54841.943359375
 31
0.0
  0
LINE
  5
37E
330
1E
100
AcDbEntity
  8
LAY0_0
  6
Continuous
 62
     0
100
AcDbLine
 10
48200.0915527344
 20
53708.8745117188
 30
0.0
 11
51612.5671386719
 21
53708.8745117188
 31
0.0
  0
LINE
  5
37F
330
1E
100
AcDbEntity
  8
LAY0_0
  6
Continuous
 62
     0
100
AcDbLine
 10
53903.4301757813
 20
54215.7775878906
 30
0.0
 11
53903.4301757813
 21
54882.4462890625
 31
0.0
  0
LINE
  5
380
330
1E
100
AcDbEntity
  8
LAY0_0
  6
Continuous
 62
     0
100
AcDbLine
 10
84079.90722656251
 20
52749.70703125
 30
0.0
 11
84134.5031738281
 21
51794.3237304688
 31
0.0
  0
LINE
  5
381
330
1E
100
AcDbEntity
  8
LAY0_0
  6
Continuous
 62
     0
100
AcDbLine
 10
53008.5815429688
 20
54984.80834960941
 30
0.0
 11
53040.6860351563
 21
54884.60083007809
 31
0.0
  0
LINE
  5
382
330
1E
100
AcDbEntity
  8
LAY0_0
  6
Continuous
 62
     0
100
AcDbLine
 10
55542.08984375
 20
54066.0339355469
 30
0.0
 11
55542.08984375
 21
53351.7395019531
 31
0.0
  0
LINE
  5
383
330
1E
100
AcDbEntity
  8
LAY0_0
  6
Continuous
 62
     0
100
AcDbLine
 10
52691.2902832031
 20
50464.48364257809
 30
0.0
 11
52691.2902832031
 21
50178.5400390625
 31
0.0
  0
LINE
  5
384
330
1E
100
AcDbEntity
  8
LAY0_0
  6
Continuous
 62
     0
100
AcDbLine
 10
48200.0915527344
 20
51937.1826171875
 30
0.0
 11
48820.5383300781
 21
51937.1826171875
 31
0.0
  0
LINE
  5
385
330
1E
100
AcDbEntity
  8
LAY0_0
  6
Continuous
 62
     0
100
AcDbLine
 10
53215.39916992191
 20
54215.7775878906
 30
0.0
 11
53215.39916992191
 21
54882.4462890625
 31
0.0
  0
LINE
  5
386
330
1E
100
AcDbEntity
  8
LAY0_0
  6
Continuous
 62
     0
100
AcDbLine
 10
53040.6860351563
 20
54884.60083007809
 30
0.0
 11
53040.6860351563
 21
54066.0339355469
 31
0.0
  0
LINE
  5
387
330
1E
100
AcDbEntity
  8
LAY0_0
  6
Continuous
 62
     0
100
AcDbLine
 10
74316.89453125
 20
54947.6379394531
 30
0.0
 11
74389.3310546875
 21
53462.9760742188
 31
0.0
  0
LINE
  5
388
330
1E
100
AcDbEntity
  8
LAY0_0
  6
Continuous
 62
     0
100
AcDbLine
 10
72872.76611328129
 20
53859.9365234375
 30
0.0
 11
74010.05859375
 21
55031.9213867188
 31
0.0
  0
LINE
  5
389
330
1E
100
AcDbEntity
  8
LAY0_0
  6
Continuous
 62
     0
100
AcDbLine
 10
58767.67578125
 20
57874.658203125
 30
0.0
 11
59766.7712332929
 21
58777.84721061297
 31
0.0
  0
LINE
  5
38A
330
1E
100
AcDbEntity
  8
LAY0_0
  6
Continuous
 62
     0
100
AcDbLine
 10
70165.4846191406
 20
54568.58520507809
 30
0.0
 11
71273.95629882809
 21
55783.47778320309
 31
0.0
  0
LINE
  5
38B
330
1E
100
AcDbEntity
  8
LAY0_0
  6
Continuous
 62
     0
100
AcDbLine
 10
68415.47851562499
 20
56568.6462402344
 30
0.0
 11
68747.3266601563
 21
54939.794921875
 31
0.0
  0
LINE
  5
38C
330
1E
100
AcDbEntity
  8
LAY0_0
  6
Continuous
 62
     0
100
AcDbLine
 10
55414.94140625
 20
58976.1779785156
 30
0.0
 11
55032.78111230235
 21
59826.39388617813
 31
0.0
  0
LINE
  5
38D
330
1E
100
AcDbEntity
  8
LAY0_0
  6
Continuous
 62
     0
100
AcDbLine
 10
69907.9345703125
 20
56158.7036132813
 30
0.0
 11
70165.4846191406
 21
54568.58520507809
 31
0.0
  0
LINE
  5
38E
330
1E
100
AcDbEntity
  8
LAY0_0
  6
Continuous
 62
     0
100
AcDbLine
 10
71500.0122070313
 20
54219.2626953125
 30
0.0
 11
72673.35205078129
 21
55399.0966796875
 31
0.0
  0
LINE
  5
38F
330
1E
100
AcDbEntity
  8
LAY0_0
  6
Continuous
 62
     0
100
AcDbLine
 10
80664.4409179688
 20
52018.1091308594
 30
0.0
 11
81497.5830078125
 21
52509.6557617188
 31
0.0
  0
LINE
  5
390
330
1E
100
AcDbEntity
  8
LAY0_0
  6
Continuous
 62
     0
100
AcDbLine
 10
54714.8193359375
 20
54127.6672363281
 30
0.0
 11
54728.1982421875
 21
54066.0339355469
 31
0.0
  0
LINE
  5
391
330
1E
100
AcDbEntity
  8
LAY0_0
  6
Continuous
 62
     0
100
AcDbLine
 10
52594.94628906249
 20
54066.0339355469
 30
0.0
 11
52594.94628906249
 21
53351.7395019531
 31
0.0
  0
LINE
  5
392
330
1E
100
AcDbEntity
  8
LAY0_0
  6
Continuous
 62
     0
100
AcDbLine
 10
68747.3266601563
 20
54939.794921875
 30
0.0
 11
69907.9345703125
 21
56158.7036132813
 31
0.0
  0
LINE
  5
393
330
1E
100
AcDbEntity
  8
LAY0_0
  6
Continuous
 62
     0
100
AcDbLine
 10
54418.6950683594
 20
54882.4462890625
 30
0.0
 11
54352.8930664063
 21
54215.7775878906
 31
0.0
  0
LINE
  5
394
330
1E
100
AcDbEntity
  8
LAY0_0
  6
Continuous
 62
     0
100
AcDbLine
 10
53499.7741699219
 20
54215.7775878906
 30
0.0
 11
53499.7741699219
 21
54882.4462890625
 31
0.0
  0
LINE
  5
395
330
1E
100
AcDbEntity
  8
LAY0_0
  6
Continuous
 62
     0
100
AcDbLine
 10
47476.2329101563
 20
51127.6550292969
 30
0.0
 11
60453.9794921875
 21
51127.6550292969
 31
0.0
  0
LINE
  5
396
330
1E
100
AcDbEntity
  8
LAY0_0
  6
Continuous
 62
     0
100
AcDbLine
 10
49647.80578613281
 20
54066.0339355469
 30
0.0
 11
49647.80578613281
 21
53351.7395019531
 31
0.0
  0
LINE
  5
397
330
1E
100
AcDbEntity
  8
LAY0_0
  6
Continuous
 62
     0
100
AcDbLine
 10
54508.0017089844
 20
54794.3237304688
 30
0.0
 11
54456.29882812499
 21
54270.5200195313
 31
0.0
  0
LINE
  5
398
330
1E
100
AcDbEntity
  8
LAY0_0
  6
Continuous
 62
     0
100
AcDbLine
 10
74860.6689453125
 20
57958.2763671875
 30
0.0
 11
77119.81811523441
 21
57697.0581054688
 31
0.0
  0
LINE
  5
399
330
1E
100
AcDbEntity
  8
LAY0_0
  6
Continuous
 62
     0
100
AcDbLine
 10
74324.73144531249
 20
57896.1975097656
 30
0.0
 11
74755.63964843749
 21
57846.3745117188
 31
0.0
  0
LINE
  5
39A
330
1E
100
AcDbEntity
  8
LAY0_0
  6
Continuous
 62
     0
100
AcDbLine
 10
74755.63964843749
 20
57846.3745117188
 30
0.0
 11
74860.6689453125
 21
57958.2763671875
 31
0.0
  0
LINE
  5
39B
330
1E
100
AcDbEntity
  8
LAY0_0
  6
Continuous
 62
     0
100
AcDbLine
 10
74324.73144531249
 20
57896.1975097656
 30
0.0
 11
74252.99072265629
 21
58028.5400390625
 31
0.0
  0
LINE
  5
39C
330
1E
100
AcDbEntity
  8
LAY0_0
  6
Continuous
 62
     0
100
AcDbLine
 10
62935.7788085938
 20
58222.900390625
 30
0.0
 11
53060.2905273438
 21
60318.1396484375
 31
0.0
  0
LINE
  5
39D
330
1E
100
AcDbEntity
  8
LAY0_0
  6
Continuous
 62
     0
100
AcDbLine
 10
84910.05859375
 20
52800.67896793575
 30
0.0
 11
82479.96826171879
 21
52651.47094726559
 31
0.0
  0
LINE
  5
39E
330
1E
100
AcDbEntity
  8
LAY0_0
  6
Continuous
 62
     0
100
AcDbLine
 10
84906.6162109375
 20
52936.9812011719
 30
0.0
 11
82583.36181640629
 21
52794.3298339844
 31
0.0
  0
LINE
  5
39F
330
1E
100
AcDbEntity
  8
LAY0_0
  6
Continuous
 62
     0
100
AcDbLine
 10
52181.3171386719
 20
51841.9494628906
 30
0.0
 11
52181.3171386719
 21
51127.6550292969
 31
0.0
  0
LINE
  5
3A0
330
1E
100
AcDbEntity
  8
LAY0_0
  6
Continuous
 62
     0
100
AcDbLine
 10
49958.0322265625
 20
54651.46484375
 30
0.0
 11
51612.5671386719
 21
54651.46484375
 31
0.0
  0
LINE
  5
3A1
330
1E
100
AcDbEntity
  8
LAY0_0
  6
Continuous
 62
     0
100
AcDbLine
 10
54146.06933593749
 20
51841.9494628906
 30
0.0
 11
54146.06933593749
 21
51127.6550292969
 31
0.0
  0
LINE
  5
3A2
330
1E
100
AcDbEntity
  8
LAY0_0
  6
Continuous
 62
     0
100
AcDbLine
 10
56152.392578125
 20
51841.9494628906
 30
0.0
 11
56152.392578125
 21
52890.4235839844
 31
0.0
  0
LINE
  5
3A3
330
1E
100
AcDbEntity
  8
LAY0_0
  6
Continuous
 62
     0
100
AcDbLine
 10
59407.7514648438
 20
50510.30883789059
 30
0.0
 11
60028.2104492188
 21
50510.30883789059
 31
0.0
  0
LINE
  5
3A4
330
1E
100
AcDbEntity
  8
LAY0_0
  6
Continuous
 62
     0
100
AcDbLine
 10
57207.12890625
 20
52749.17602539059
 30
0.0
 11
58187.2863769531
 21
52749.17602539059
 31
0.0
  0
LINE
  5
3A5
330
1E
100
AcDbEntity
  8
LAY0_0
  6
Continuous
 62
     0
100
AcDbLine
 10
77191.56494140629
 20
57564.7216796875
 30
0.0
 11
77622.4670410156
 21
57514.8986816406
 31
0.0
  0
LINE
  5
3A6
330
1E
100
AcDbEntity
  8
LAY0_0
  6
Continuous
 62
     0
100
AcDbLine
 10
74252.99072265629
 20
58028.5400390625
 30
0.0
 11
74355.8837890625
 21
58124.71923828129
 31
0.0
  0
LINE
  5
3A7
330
1E
100
AcDbEntity
  8
LAY0_0
  6
Continuous
 62
     0
100
AcDbLine
 10
50624.63073730469
 20
56726.83715820309
 30
0.0
 11
50624.63073730469
 21
56651.45874023441
 31
0.0
  0
LINE
  5
3A8
330
1E
100
AcDbEntity
  8
LAY0_0
  6
Continuous
 62
     0
100
AcDbLine
 10
62896.1791992188
 20
58084.7045898438
 30
0.0
 11
53887.55493164059
 21
60080.0537109375
 31
0.0
  0
LINE
  5
3A9
330
1E
100
AcDbEntity
  8
LAY0_0
  6
Continuous
 62
     0
100
AcDbLine
 10
48200.0915527344
 20
53351.7395019531
 30
0.0
 11
59781.8298339844
 21
53351.7395019531
 31
0.0
  0
LINE
  5
3AA
330
1E
100
AcDbEntity
  8
LAY0_0
  6
Continuous
 62
     0
100
AcDbLine
 10
82376.5625
 20
52318.1396484375
 30
0.0
 11
77671.4782714844
 21
54175.2746582031
 31
0.0
  0
LINE
  5
3AB
330
1E
100
AcDbEntity
  8
LAY0_0
  6
Continuous
 62
     0
100
AcDbLine
 10
59732.99202639481
 20
58785.32907563402
 30
0.0
 11
60060.21118164059
 21
57450.0122070313
 31
0.0
  0
LINE
  5
3AC
330
1E
100
AcDbEntity
  8
LAY0_0
  6
Continuous
 62
     0
100
AcDbLine
 10
57661.962890625
 20
53351.7395019531
 30
0.0
 11
57661.962890625
 21
54066.0339355469
 31
0.0
  0
LINE
  5
3AD
330
1E
100
AcDbEntity
  8
LAY0_0
  6
Continuous
 62
     0
100
AcDbLine
 10
83175.57373046879
 20
52694.19555664059
 30
0.0
 11
83226.9287109375
 21
51795.4467773438
 31
0.0
  0
LINE
  5
3AE
330
1E
100
AcDbEntity
  8
LAY0_0
  6
Continuous
 62
     0
100
AcDbLine
 10
81807.8125
 20
51794.3237304688
 30
0.0
 11
77671.4782714844
 21
52603.857421875
 31
0.0
  0
LINE
  5
3AF
330
1E
100
AcDbEntity
  8
LAY0_0
  6
Continuous
 62
     0
100
AcDbLine
 10
77671.4782714844
 20
54175.2746582031
 30
0.0
 11
62935.7788085938
 21
58222.900390625
 31
0.0
  0
LINE
  5
3B0
330
1E
100
AcDbEntity
  8
LAY0_0
  6
Continuous
 62
     0
100
AcDbLine
 10
58644.3359375
 20
53351.7395019531
 30
0.0
 11
58644.3359375
 21
54066.0339355469
 31
0.0
  0
LINE
  5
3B1
330
1E
100
AcDbEntity
  8
LAY0_0
  6
Continuous
 62
     0
100
AcDbLine
 10
84105.71289062501
 20
52750.9704589844
 30
0.0
 11
84160.3210449219
 21
51795.5810546875
 31
0.0
  0
LINE
  5
3B2
330
1E
100
AcDbEntity
  8
LAY0_0
  6
Continuous
 62
     0
100
AcDbLine
 10
77671.4782714844
 20
52603.857421875
 30
0.0
 11
67847.68066406249
 21
55175.2807617188
 31
0.0
  0
LINE
  5
3B3
330
1E
100
AcDbEntity
  8
LAY0_0
  6
Continuous
 62
     0
100
AcDbLine
 10
51612.5671386719
 20
54651.46484375
 30
0.0
 11
51612.5671386719
 21
54066.0339355469
 31
0.0
  0
LINE
  5
3B4
330
1E
100
AcDbEntity
  8
LAY0_0
  6
Continuous
 62
     0
100
AcDbLine
 10
67803.66821289059
 20
55038.2934570313
 30
0.0
 11
62736.6577148438
 21
56419.23828124999
 31
0.0
  0
LINE
  5
3B5
330
1E
100
AcDbEntity
  8
LAY0_0
  6
Continuous
 62
     0
100
AcDbLine
 10
70357.28759765629
 20
58478.9733886719
 30
0.0
 11
74252.99072265629
 21
58028.5339355469
 31
0.0
  0
LINE
  5
3B6
330
1E
100
AcDbEntity
  8
LAY0_0
  6
Continuous
 62
     0
100
AcDbLine
 10
51612.5671386719
 20
54066.0339355469
 30
0.0
 11
51612.5671386719
 21
53351.7395019531
 31
0.0
  0
LINE
  5
3B7
330
1E
100
AcDbEntity
  8
LAY0_0
  6
Continuous
 62
     0
100
AcDbLine
 10
56679.5776367188
 20
53351.7395019531
 30
0.0
 11
56679.5776367188
 21
54066.0339355469
 31
0.0
  0
LINE
  5
3B8
330
1E
100
AcDbEntity
  8
LAY0_0
  6
Continuous
 62
     0
100
AcDbLine
 10
67847.68066406249
 20
55175.2807617188
 30
0.0
 11
62780.6701660156
 21
56556.23168945309
 31
0.0
  0
LINE
  5
3B9
330
1E
100
AcDbEntity
  8
LAY0_0
  6
Continuous
 62
     0
100
AcDbLine
 10
54405.5908203125
 20
59307.79418945309
 30
0.0
 11
54005.54074803586
 21
60053.92065354127
 31
0.0
  0
LINE
  5
3BA
330
1E
100
AcDbEntity
  8
LAY0_0
  6
Continuous
 62
     0
100
AcDbLine
 10
53209.8388671875
 20
57008.7829589844
 30
0.0
 11
53048.2543945313
 21
57008.7829589844
 31
0.0
  0
LINE
  5
3BB
330
1E
100
AcDbEntity
  8
LAY0_0
  6
Continuous
 62
     0
100
AcDbLine
 10
48665.43579101559
 20
48889.5690917969
 30
0.0
 11
48665.43579101559
 21
50889.5629882813
 31
0.0
  0
LINE
  5
3BC
330
1E
100
AcDbEntity
  8
LAY0_0
  6
Continuous
 62
     0
100
AcDbLine
 10
54216.4245605469
 20
50077.5756835938
 30
0.0
 11
54216.4245605469
 21
50603.8513183594
 31
0.0
  0
LINE
  5
3BD
330
1E
100
AcDbEntity
  8
LAY0_0
  6
Continuous
 62
     0
100
AcDbLine
 10
48254.0405273438
 20
48889.5690917969
 30
0.0
 11
48254.0405273438
 21
49206.0119628906
 31
0.0
  0
LINE
  5
3BE
330
1E
100
AcDbEntity
  8
LAY0_0
  6
Continuous
 62
     0
100
AcDbLine
 10
56110.8337402344
 20
51841.9494628906
 30
0.0
 11
56110.8337402344
 21
51127.6550292969
 31
0.0
  0
LINE
  5
3BF
330
1E
100
AcDbEntity
  8
LAY0_0
  6
Continuous
 62
     0
100
AcDbLine
 10
48200.0915527344
 20
52889.5629882813
 30
0.0
 11
48820.5383300781
 21
52889.5629882813
 31
0.0
  0
LINE
  5
3C0
330
1E
100
AcDbEntity
  8
LAY0_0
  6
Continuous
 62
     0
100
AcDbLine
 10
48254.0405273438
 20
49206.0119628906
 30
0.0
 11
47993.2708740234
 21
49206.0119628906
 31
0.0
  0
LINE
  5
3C1
330
1E
100
AcDbEntity
  8
LAY0_0
  6
Continuous
 62
     0
100
AcDbLine
 10
47476.2329101563
 20
51841.9494628906
 30
0.0
 11
47476.2329101563
 21
51127.6550292969
 31
0.0
  0
LINE
  5
3C2
330
1E
100
AcDbEntity
  8
LAY0_0
  6
Continuous
 62
     0
100
AcDbLine
 10
60060.21118164059
 20
57450.0122070313
 30
0.0
 11
61053.13306561042
 21
58492.92679709757
 31
0.0
  0
LINE
  5
3C3
330
1E
100
AcDbEntity
  8
LAY0_0
  6
Continuous
 62
     0
100
AcDbLine
 10
64015.6005859375
 20
57777.2216796875
 30
0.0
 11
64219.3481445313
 21
56164.1235351563
 31
0.0
  0
LINE
  5
3C4
330
1E
100
AcDbEntity
  8
LAY0_0
  6
Continuous
 62
     0
100
AcDbLine
 10
54818.2250976563
 20
55032.4279785156
 30
0.0
 11
54818.2250976563
 21
55080.0415039063
 31
0.0
  0
LINE
  5
3C5
330
1E
100
AcDbEntity
  8
LAY0_0
  6
Continuous
 62
     0
100
AcDbLine
 10
56568.06030273441
 20
58597.3266601563
 30
0.0
 11
56169.18818134275
 21
59574.6874347752
 31
0.0
  0
LINE
  5
3C7
330
1E
100
AcDbEntity
  8
LAY0_0
  6
Continuous
 62
     0
100
AcDbLine
 10
56169.18818134275
 20
59574.68743477519
 30
0.0
 11
55414.94140625
 21
58976.1779785156
 31
0.0
  0
LINE
  5
3C8
330
1E
100
AcDbEntity
  8
LAY0_0
  6
Continuous
 62
     0
100
AcDbLine
 10
55032.78111230235
 20
59826.39388617813
 30
0.0
 11
54405.5908203125
 21
59307.79418945309
 31
0.0
  0
LINE
  5
3C9
330
1E
100
AcDbEntity
  8
LAY0_0
  6
Continuous
 62
     0
100
AcDbLine
 10
47269.8425292969
 20
49206.0119628906
 30
0.0
 11
47269.41833496089
 21
49206.0119628906
 31
0.0
  0
LINE
  5
3CA
330
1E
100
AcDbEntity
  8
LAY0_0
  6
Continuous
 62
     0
100
AcDbLine
 10
53718.017578125
 20
50603.8513183594
 30
0.0
 11
53718.017578125
 21
50077.5756835938
 31
0.0
  0
LINE
  5
3CB
330
1E
100
AcDbEntity
  8
LAY0_0
  6
Continuous
 62
     0
100
AcDbLine
 10
52123.75488281249
 20
50565.14282226559
 30
0.0
 11
52123.75488281249
 21
49365.5151367188
 31
0.0
  0
LINE
  5
3CC
330
1E
100
AcDbEntity
  8
LAY0_0
  6
Continuous
 62
     0
100
AcDbLine
 10
47993.2708740234
 20
49206.0119628906
 30
0.0
 11
47993.2708740234
 21
48889.5690917969
 31
0.0
  0
LINE
  5
3CD
330
1E
100
AcDbEntity
  8
LAY0_0
  6
Continuous
 62
     0
100
AcDbLine
 10
47476.2329101563
 20
50889.5629882813
 30
0.0
 11
47476.2329101563
 21
51127.6550292969
 31
0.0
  0
LINE
  5
3CE
330
1E
100
AcDbEntity
  8
LAY0_0
  6
Continuous
 62
     0
100
AcDbLine
 10
59407.7514648438
 20
50272.216796875
 30
0.0
 11
60028.2104492188
 21
50272.216796875
 31
0.0
  0
LINE
  5
3CF
330
1E
100
AcDbEntity
  8
LAY0_0
  6
Continuous
 62
     0
100
AcDbLine
 10
53718.017578125
 20
50077.5756835938
 30
0.0
 11
54714.8193359375
 21
50077.5756835938
 31
0.0
  0
LINE
  5
3D0
330
1E
100
AcDbEntity
  8
LAY0_0
  6
Continuous
 62
     0
100
AcDbLine
 10
48200.0915527344
 20
52175.2807617188
 30
0.0
 11
48820.5383300781
 21
52175.2807617188
 31
0.0
  0
LINE
  5
3D1
330
1E
100
AcDbEntity
  8
LAY0_0
  6
Continuous
 62
     0
100
AcDbLine
 10
47530.1879882813
 20
48889.5690917969
 30
0.0
 11
47530.1879882813
 21
49206.0119628906
 31
0.0
  0
LINE
  5
3D2
330
1E
100
AcDbEntity
  8
LAY0_0
  6
Continuous
 62
     0
100
AcDbLine
 10
52212.2619628906
 20
50178.5400390625
 30
0.0
 11
52212.2619628906
 21
50464.48364257809
 31
0.0
  0
LINE
  5
3D3
330
1E
100
AcDbEntity
  8
LAY0_0
  6
Continuous
 62
     0
100
AcDbLine
 10
51198.9349365234
 20
51484.8083496094
 30
0.0
 11
52181.3171386719
 21
51484.8083496094
 31
0.0
  0
LINE
  5
3D4
330
1E
100
AcDbEntity
  8
LAY0_0
  6
Continuous
 62
     0
100
AcDbLine
 10
55128.4545898438
 20
51841.9494628906
 30
0.0
 11
55128.4545898438
 21
51127.6550292969
 31
0.0
  0
LINE
  5
3D5
330
1E
100
AcDbEntity
  8
LAY0_0
  6
Continuous
 62
     0
100
AcDbLine
 10
59722.4975585938
 20
49796.0205078125
 30
0.0
 11
60028.2104492188
 21
49796.0205078125
 31
0.0
  0
LINE
  5
3D6
330
1E
100
AcDbEntity
  8
LAY0_0
  6
Continuous
 62
     0
100
AcDbLine
 10
48200.0915527344
 20
54066.0339355469
 30
0.0
 11
59781.8298339844
 21
54066.0339355469
 31
0.0
  0
LINE
  5
3D7
330
1E
100
AcDbEntity
  8
LAY0_0
  6
Continuous
 62
     0
100
AcDbLine
 10
52179.4921875
 20
52080.3283691406
 30
0.0
 11
51199.3347167969
 21
52080.3283691406
 31
0.0
  0
LINE
  5
3D8
330
1E
100
AcDbEntity
  8
LAY0_0
  6
Continuous
 62
     0
100
AcDbLine
 10
52775.7568359375
 20
50565.14282226559
 30
0.0
 11
52123.75488281249
 21
50565.14282226559
 31
0.0
  0
LINE
  5
3D9
330
1E
100
AcDbEntity
  8
LAY0_0
  6
Continuous
 62
     0
100
AcDbLine
 10
56721.5393066406
 20
50603.8513183594
 30
0.0
 11
56721.5393066406
 21
50077.5756835938
 31
0.0
  0
LINE
  5
3DA
330
1E
100
AcDbEntity
  8
LAY0_0
  6
Continuous
 62
     0
100
AcDbLine
 10
53209.8388671875
 20
56258.4167480469
 30
0.0
 11
53048.2543945313
 21
56258.4167480469
 31
0.0
  0
LINE
  5
3DB
330
1E
100
AcDbEntity
  8
LAY0_0
  6
Continuous
 62
     0
100
AcDbLine
 10
47530.1879882813
 20
49206.0119628906
 30
0.0
 11
47269.8425292969
 21
49206.0119628906
 31
0.0
  0
LINE
  5
3DC
330
1E
100
AcDbEntity
  8
LAY0_0
  6
Continuous
 62
     0
100
AcDbLine
 10
74010.05859375
 20
55031.9213867188
 30
0.0
 11
73574.4873046875
 21
53676.2634277344
 31
0.0
  0
LINE
  5
3DD
330
1E
100
AcDbEntity
  8
LAY0_0
  6
Continuous
 62
     0
100
AcDbLine
 10
77051.01928710941
 20
54175.2746582031
 30
0.0
 11
77257.8491210938
 21
52712.12158203129
 31
0.0
  0
LINE
  5
3DE
330
1E
100
AcDbEntity
  8
LAY0_0
  6
Continuous
 62
     0
100
AcDbLine
 10
68149.6032714844
 20
56641.69311523441
 30
0.0
 11
67692.0654296875
 21
55217.6940917969
 31
0.0
  0
LINE
  5
3DF
330
1E
100
AcDbEntity
  8
LAY0_0
  6
Continuous
 62
     0
100
AcDbLine
 10
68415.6555175781
 20
56569.1772460938
 30
0.0
 11
67958.11767578129
 21
55145.1904296875
 31
0.0
  0
LINE
  5
3E0
330
1E
100
AcDbEntity
  8
LAY0_0
  6
Continuous
 62
     0
100
AcDbLine
 10
75653.4912109375
 20
53132.0495605469
 30
0.0
 11
76840.05126953129
 21
54254.5837402344
 31
0.0
  0
LINE
  5
3E1
330
1E
100
AcDbEntity
  8
LAY0_0
  6
Continuous
 62
     0
100
AcDbLine
 10
58433.6784156462
 20
59073.11822015002
 30
0.0
 11
58767.67578125
 21
57874.658203125
 31
0.0
  0
LINE
  5
3E2
330
1E
100
AcDbEntity
  8
LAY0_0
  6
Continuous
 62
     0
100
AcDbLine
 10
83149.76806640629
 20
52692.60253906249
 30
0.0
 11
83201.11083984379
 21
51794.19555664059
 31
0.0
  0
LINE
  5
3E3
330
1E
100
AcDbEntity
  8
LAY0_0
  6
Continuous
 62
     0
100
AcDbLine
 10
74389.3310546875
 20
53462.9760742188
 30
0.0
 11
75513.232421875
 21
54619.0490722656
 31
0.0
  0
LINE
  5
3E4
330
1E
100
AcDbEntity
  8
LAY0_0
  6
Continuous
 62
     0
100
AcDbLine
 10
87593.7744140625
 20
49699.3835449219
 30
0.0
 11
87593.7744140625
 21
49318.1335449219
 31
0.0
  0
LINE
  5
3E5
330
1E
100
AcDbEntity
  8
LAY0_0
  6
Continuous
 62
     0
100
AcDbLine
 10
48923.9501953125
 20
54066.0339355469
 30
0.0
 11
48923.9501953125
 21
53351.7395019531
 31
0.0
  0
LINE
  5
3E6
330
1E
100
AcDbEntity
  8
LAY0_0
  6
Continuous
 62
     0
100
AcDbLine
 10
75513.232421875
 20
54619.0490722656
 30
0.0
 11
75653.4912109375
 21
53132.0495605469
 31
0.0
  0
LINE
  5
3E7
330
1E
100
AcDbEntity
  8
LAY0_0
  6
Continuous
 62
     0
100
AcDbLine
 10
71273.95629882809
 20
55783.47778320309
 30
0.0
 11
71500.0122070313
 21
54219.2626953125
 31
0.0
  0
LINE
  5
3E8
330
1E
100
AcDbEntity
  8
LAY0_0
  6
Continuous
 62
     0
100
AcDbLine
 10
50630.1879882813
 20
54066.0339355469
 30
0.0
 11
50630.1879882813
 21
53351.7395019531
 31
0.0
  0
LINE
  5
3E9
330
1E
100
AcDbEntity
  8
LAY0_0
  6
Continuous
 62
     0
100
AcDbLine
 10
91424.7924804688
 20
48002.3559570313
 30
0.0
 11
91424.7924804688
 21
49270.5200195313
 31
0.0
  0
LINE
  5
3EA
330
1E
100
AcDbEntity
  8
LAY0_0
  6
Continuous
 62
     0
100
AcDbLine
 10
90856.0424804688
 20
47556.2316894531
 30
0.0
 11
91166.2719726563
 21
47603.8452148438
 31
0.0
  0
LINE
  5
3EB
330
1E
100
AcDbEntity
  8
LAY0_0
  6
Continuous
 62
     0
100
AcDbLine
 10
91166.2719726563
 20
47603.8452148438
 30
0.0
 11
91269.67773437501
 21
47508.6181640625
 31
0.0
  0
LINE
  5
3EC
330
1E
100
AcDbEntity
  8
LAY0_0
  6
Continuous
 62
     0
100
AcDbLine
 10
90700.93994140631
 20
56222.900390625
 30
0.0
 11
90390.70434570311
 21
56222.900390625
 31
0.0
  0
LINE
  5
3ED
330
1E
100
AcDbEntity
  8
LAY0_0
  6
Continuous
 62
     0
100
AcDbLine
 10
81807.81249999999
 20
51648.27915586616
 30
0.0
 11
77639.2333984375
 21
52464.1174316406
 31
0.0
  0
LINE
  5
3EE
330
1E
100
AcDbEntity
  8
LAY0_0
  6
Continuous
 62
     0
100
AcDbLine
 10
62780.6701660156
 20
56556.23168945309
 30
0.0
 11
64015.6005859375
 21
57777.2216796875
 31
0.0
  0
LINE
  5
3EF
330
1E
100
AcDbEntity
  8
LAY0_0
  6
Continuous
 62
     0
100
AcDbLine
 10
57683.5327148438
 20
58230.8471679688
 30
0.0
 11
58478.74294005156
 21
59063.13673391038
 31
0.0
  0
LINE
  5
3F0
330
1E
100
AcDbEntity
  8
LAY0_0
  6
Continuous
 62
     0
100
AcDbLine
 10
57347.08651742777
 20
59313.79094938134
 30
0.0
 11
57683.5327148438
 21
58230.8471679688
 31
0.0
  0
LINE
  5
3F1
330
1E
100
AcDbEntity
  8
LAY0_0
  6
Continuous
 62
     0
100
AcDbLine
 10
77629.0771484375
 20
52466.4306640625
 30
0.0
 11
67805.27954101559
 21
55037.8662109375
 31
0.0
  0
LINE
  5
3F2
330
1E
100
AcDbEntity
  8
LAY0_0
  6
Continuous
 62
     0
100
AcDbLine
 10
72673.35205078129
 20
55399.0966796875
 30
0.0
 11
72872.76611328129
 21
53859.9365234375
 31
0.0
  0
LINE
  5
3F4
330
1E
100
AcDbEntity
  8
LAY0_0
  6
Continuous
 62
     0
100
AcDbLine
 10
66938.26904296879
 20
55423.12622070309
 30
0.0
 11
68149.6032714844
 21
56641.69311523441
 31
0.0
  0
LINE
  5
3F5
330
1E
100
AcDbEntity
  8
LAY0_0
  6
Continuous
 62
     0
100
AcDbLine
 10
62896.1791992188
 20
58084.7045898438
 30
0.0
 11
77627.1484375
 21
54038.37890625
 31
0.0
  0
LINE
  5
3F6
330
1E
100
AcDbEntity
  8
LAY0_0
  6
Continuous
 62
     0
100
AcDbLine
 10
64219.3481445313
 20
56164.1235351563
 30
0.0
 11
65351.8615722656
 21
57410.1684570313
 31
0.0
  0
LINE
  5
3F7
330
1E
100
AcDbEntity
  8
LAY0_0
  6
Continuous
 62
     0
100
AcDbLine
 10
65575.44555664059
 20
55794.5373535156
 30
0.0
 11
66781.1828613281
 21
57017.5659179688
 31
0.0
  0
LINE
  5
3F8
330
1E
100
AcDbEntity
  8
LAY0_0
  6
Continuous
 62
     0
100
AcDbLine
 10
61014.63385326455
 20
58501.45411128399
 30
0.0
 11
61306.96411132809
 21
57040.3991699219
 31
0.0
  0
LINE
  5
3F9
330
1E
100
AcDbEntity
  8
LAY0_0
  6
Continuous
 62
     0
100
AcDbLine
 10
53887.55493164059
 20
60080.0537109375
 30
0.0
 11
53725.06766136643
 21
59531.35628828364
 31
0.0
  0
LINE
  5
3FA
330
1E
100
AcDbEntity
  8
LAY0_0
  6
Continuous
 62
     0
100
AcDbLine
 10
62728.5522460938
 20
56421.67968749999
 30
0.0
 11
52233.0200195313
 21
59937.18872070309
 31
0.0
  0
LINE
  5
3FB
330
1E
100
AcDbEntity
  8
LAY0_0
  6
Continuous
 62
     0
100
AcDbLine
 10
66781.1828613281
 20
57017.5659179688
 30
0.0
 11
66938.26904296879
 21
55423.12622070309
 31
0.0
  0
LINE
  5
3FC
330
1E
100
AcDbEntity
  8
LAY0_0
  6
Continuous
 62
     0
100
AcDbLine
 10
56568.06030273441
 20
58597.3266601563
 30
0.0
 11
57347.08651742777
 21
59313.79094938134
 31
0.0
  0
LINE
  5
3FD
330
1E
100
AcDbEntity
  8
LAY0_0
  6
Continuous
 62
     0
100
AcDbLine
 10
65351.8615722656
 20
57410.1684570313
 30
0.0
 11
65575.44555664059
 21
55794.5373535156
 31
0.0
  0
LINE
  5
3FE
330
1E
100
AcDbEntity
  8
LAY0_0
  6
Continuous
 62
     0
100
AcDbLine
 10
88374.2431640625
 20
54127.6672363281
 30
0.0
 11
88374.2431640625
 21
53413.37890625
 31
0.0
  0
LINE
  5
3FF
330
1E
100
AcDbEntity
  8
LAY0_0
  6
Continuous
 62
     0
100
AcDbLine
 10
50331.9091796875
 20
56072.7233886719
 30
0.0
 11
49958.0322265625
 21
54651.46484375
 31
0.0
  0
LINE
  5
400
330
1E
100
AcDbEntity
  8
LAY0_0
  6
Continuous
 62
     0
100
AcDbLine
 10
81911.2182617188
 20
49603.8513183594
 30
0.0
 11
81911.2182617188
 21
49318.1335449219
 31
0.0
  0
LINE
  5
401
330
1E
100
AcDbEntity
  8
LAY0_0
  6
Continuous
 62
     0
100
AcDbLine
 10
82531.67724609379
 20
51841.9494628906
 30
0.0
 11
82568.88427734379
 21
51794.3237304688
 31
0.0
  0
LINE
  5
402
330
1E
100
AcDbEntity
  8
LAY0_0
  6
Continuous
 62
     0
100
AcDbLine
 10
90907.7514648438
 20
53413.37890625
 30
0.0
 11
90907.7514648438
 21
54127.6672363281
 31
0.0
  0
LINE
  5
403
330
1E
100
AcDbEntity
  8
LAY0_0
  6
Continuous
 62
     0
100
AcDbLine
 10
82479.96826171879
 20
49754.76074218749
 30
0.0
 11
82479.96826171879
 21
49585.6079101563
 31
0.0
  0
LINE
  5
405
330
1E
100
AcDbEntity
  8
LAY0_0
  6
Continuous
 62
     0
100
AcDbLine
 10
50463.0401611328
 20
56726.83715820309
 30
0.0
 11
50624.63073730469
 21
56726.83715820309
 31
0.0
  0
LINE
  5
406
330
1E
100
AcDbEntity
  8
LAY0_0
  6
Continuous
 62
     0
100
AcDbLine
 10
50368.310546875
 20
56055.9936523438
 30
0.0
 11
49998.8433837891
 21
54651.46484375
 31
0.0
  0
LINE
  5
407
330
1E
100
AcDbEntity
  8
LAY0_0
  6
Continuous
 62
     0
100
AcDbLine
 10
53629.1259765625
 20
55413.3728027344
 30
0.0
 11
53939.2944335938
 21
55413.3728027344
 31
0.0
  0
LINE
  5
408
330
1E
100
AcDbEntity
  8
LAY0_0
  6
Continuous
 62
     0
100
AcDbLine
 10
50509.20104980469
 20
56726.83715820309
 30
0.0
 11
50509.20104980469
 21
56841.4245605469
 31
0.0
  0
LINE
  5
409
330
1E
100
AcDbEntity
  8
LAY0_0
  6
Continuous
 62
     0
100
AcDbLine
 10
88477.65502929689
 20
54032.42797851559
 30
0.0
 11
89819.0551757813
 21
54032.42797851559
 31
0.0
  0
LINE
  5
40B
330
1E
100
AcDbEntity
  8
LAY0_0
  6
Continuous
 62
     0
100
AcDbLine
 10
50624.63073730469
 20
56651.45874023441
 30
0.0
 11
50463.0401611328
 21
56651.45874023441
 31
0.0
  0
LINE
  5
40C
330
1E
100
AcDbEntity
  8
LAY0_0
  6
Continuous
 62
     0
100
AcDbLine
 10
53172.1862792969
 20
56448.3825683594
 30
0.0
 11
53172.1862792969
 21
56333.79516601559
 31
0.0
  0
LINE
  5
40D
330
1E
100
AcDbEntity
  8
LAY0_0
  6
Continuous
 62
     0
100
AcDbLine
 10
50624.63073730469
 20
57786.80419921879
 30
0.0
 11
50624.63073730469
 21
57711.4318847656
 31
0.0
  0
LINE
  5
40E
330
1E
100
AcDbEntity
  8
LAY0_0
  6
Continuous
 62
     0
100
AcDbLine
 10
50509.20104980469
 20
56841.4245605469
 30
0.0
 11
50586.97814941409
 21
56841.4245605469
 31
0.0
  0
LINE
  5
40F
330
1E
100
AcDbEntity
  8
LAY0_0
  6
Continuous
 62
     0
100
AcDbLine
 10
50463.0401611328
 20
54651.46484375
 30
0.0
 11
50463.0401611328
 21
59413.3728027344
 31
0.0
  0
LINE
  5
410
330
1E
100
AcDbEntity
  8
LAY0_0
  6
Continuous
 62
     0
100
AcDbLine
 10
60816.748046875
 20
49460.99853515629
 30
0.0
 11
60816.748046875
 21
48889.5690917969
 31
0.0
  0
LINE
  5
411
330
1E
100
AcDbEntity
  8
LAY0_0
  6
Continuous
 62
     0
100
AcDbLine
 10
79365.4541015625
 20
57437.40844726559
 30
0.0
 11
81413.78784179691
 21
57200.5798339844
 31
0.0
  0
LINE
  5
412
330
1E
100
AcDbEntity
  8
LAY0_0
  6
Continuous
 62
     0
100
AcDbLine
 10
50678.2165527344
 20
58404.9682617188
 30
0.0
 11
50692.3278808594
 21
58280.1208496094
 31
0.0
  0
LINE
  5
413
330
1E
100
AcDbEntity
  8
LAY0_0
  6
Continuous
 62
     0
100
AcDbLine
 10
53094.41528320309
 20
57084.1491699219
 30
0.0
 11
53094.41528320309
 21
57198.7487792969
 31
0.0
  0
LINE
  5
414
330
1E
100
AcDbEntity
  8
LAY0_0
  6
Continuous
 62
     0
100
AcDbLine
 10
50770.01953125
 20
58884.77172851559
 30
0.0
 11
50540.1794433594
 21
58884.77172851559
 31
0.0
  0
LINE
  5
415
330
1E
100
AcDbEntity
  8
LAY0_0
  6
Continuous
 62
     0
100
AcDbLine
 10
52026.2084960938
 20
57032.4340820313
 30
0.0
 11
52039.23041726995
 21
56853.28714423231
 31
0.0
  0
LINE
  5
417
330
1E
100
AcDbEntity
  8
LAY0_0
  6
Continuous
 62
     0
100
AcDbLine
 10
53121.36268541081
 20
60471.86470732627
 30
0.0
 11
62707.5317382813
 21
59363.4765625
 31
0.0
  0
LINE
  5
418
330
1E
100
AcDbEntity
  8
LAY0_0
  6
Continuous
 62
     0
100
AcDbLine
 10
82576.7883300781
 20
51869.1528320313
 30
0.0
 11
82635.2783203125
 21
51794.3237304688
 31
0.0
  0
LINE
  5
419
330
1E
100
AcDbEntity
  8
LAY0_0
  6
Continuous
 62
     0
100
AcDbLine
 10
88477.65502929689
 20
54032.42797851559
 30
0.0
 11
88374.2431640625
 21
54032.42797851559
 31
0.0
  0
LINE
  5
41A
330
1E
100
AcDbEntity
  8
LAY0_0
  6
CENTER
 62
     0
 48
100.0
100
AcDbLine
 10
81187.353515625
 20
48841.94335937499
 30
0.0
 11
81187.353515625
 21
47080.0415039063
 31
0.0
  0
LINE
  5
41B
330
1E
100
AcDbEntity
  8
LAY0_0
  6
Continuous
 62
     0
100
AcDbLine
 10
62780.6701660156
 20
56556.23168945309
 30
0.0
 11
53649.35259880307
 21
59556.2316894531
 31
0.0
  0
LINE
  5
41C
330
1E
100
AcDbEntity
  8
LAY0_0
  6
Continuous
 62
     0
100
AcDbLine
 10
81032.25097656251
 20
49746.7041015625
 30
0.0
 11
80679.87060546879
 21
49746.7041015625
 31
0.0
  0
LINE
  5
41D
330
1E
100
AcDbEntity
  8
LAY0_0
  6
Continuous
 62
     0
100
AcDbLine
 10
62143.3715820313
 20
48651.4770507813
 30
0.0
 11
61033.0749511719
 21
49003.8513183594
 31
0.0
  0
LINE
  5
41E
330
1E
100
AcDbEntity
  8
LAY0_0
  6
CENTER
 62
     0
 48
100.0
100
AcDbLine
 10
85840.73486328129
 20
47080.0415039063
 30
0.0
 11
85840.73486328129
 21
48889.5690917969
 31
0.0
  0
LINE
  5
41F
330
1E
100
AcDbEntity
  8
LAY0_0
  6
Continuous
 62
     0
100
AcDbLine
 10
61306.96411132809
 20
57040.3991699219
 30
0.0
 11
62623.0285644531
 21
58142.6452636719
 31
0.0
  0
LINE
  5
420
330
1E
100
AcDbEntity
  8
LAY0_0
  6
Continuous
 62
     0
100
AcDbLine
 10
60919.3237304688
 20
48937.1826171875
 30
0.0
 11
60919.3237304688
 21
48889.5690917969
 31
0.0
  0
LINE
  5
422
330
1E
100
AcDbEntity
  8
LAY0_0
  6
Continuous
 62
     0
100
AcDbLine
 10
90752.63671874999
 20
51127.6550292969
 30
0.0
 11
89873.6572265625
 21
51127.6550292969
 31
0.0
  0
LINE
  5
423
330
1E
100
AcDbEntity
  8
LAY0_0
  6
Continuous
 62
     0
100
AcDbLine
 10
68434.1064453125
 20
58577.294921875
 30
0.0
 11
68362.35961914059
 21
58709.6435546875
 31
0.0
  0
LINE
  5
424
330
1E
100
AcDbEntity
  8
LAY0_0
  6
Continuous
 62
     0
100
AcDbLine
 10
68970.0439453125
 20
58639.3859863281
 30
0.0
 11
70357.28759765629
 21
58478.9733886719
 31
0.0
  0
LINE
  5
425
330
1E
100
AcDbEntity
  8
LAY0_0
  6
Continuous
 62
     0
100
AcDbLine
 10
61033.0749511719
 20
49003.8513183594
 30
0.0
 11
60919.3237304688
 21
48937.1826171875
 31
0.0
  0
LINE
  5
426
330
1E
100
AcDbEntity
  8
LAY0_0
  6
Continuous
 62
     0
100
AcDbLine
 10
86099.2614746094
 20
51794.3237304688
 30
0.0
 11
86099.2614746094
 21
53080.03540039059
 31
0.0
  0
LINE
  5
427
330
1E
100
AcDbEntity
  8
LAY0_0
  6
Continuous
 62
     0
100
AcDbLine
 10
77622.4670410156
 20
57514.8986816406
 30
0.0
 11
77727.50854492191
 21
57626.78833007809
 31
0.0
  0
LINE
  5
428
330
1E
100
AcDbEntity
  8
LAY0_0
  6
Continuous
 62
     0
100
AcDbLine
 10
68865.00244140629
 20
58527.4719238281
 30
0.0
 11
68970.0439453125
 21
58639.3676757813
 31
0.0
  0
LINE
  5
429
330
1E
100
AcDbEntity
  8
LAY0_0
  6
Continuous
 62
     0
100
AcDbLine
 10
68465.2587890625
 20
58805.81665039059
 30
0.0
 11
68896.15478515629
 21
58755.98754882809
 31
0.0
  0
LINE
  5
42A
330
1E
100
AcDbEntity
  8
LAY0_0
  6
Continuous
 62
     0
100
AcDbLine
 10
77119.81811523441
 20
57697.0642089844
 30
0.0
 11
77222.71118164059
 21
57793.24340820309
 31
0.0
  0
LINE
  5
42B
330
1E
100
AcDbEntity
  8
LAY0_0
  6
Continuous
 62
     0
100
AcDbLine
 10
50540.1794433594
 20
58884.77172851559
 30
0.0
 11
50540.1794433594
 21
58404.9682617188
 31
0.0
  0
LINE
  5
42C
330
1E
100
AcDbEntity
  8
LAY0_0
  6
Continuous
 62
     0
100
AcDbLine
 10
81480.41992187501
 20
57266.33911132809
 30
0.0
 11
81855.79833984379
 21
57225.4821777344
 31
0.0
  0
LINE
  5
42D
330
1E
100
AcDbEntity
  8
LAY0_0
  6
Continuous
 62
     0
100
AcDbLine
 10
90907.7514648438
 20
51127.6550292969
 30
0.0
 11
90907.7514648438
 21
53413.37890625
 31
0.0
  0
LINE
  5
42E
330
1E
100
AcDbEntity
  8
LAY0_0
  6
Continuous
 62
     0
100
AcDbLine
 10
50655.1025390625
 20
59627.9541015625
 30
0.0
 11
50655.1025390625
 21
58884.77172851559
 31
0.0
  0
LINE
  5
42F
330
1E
100
AcDbEntity
  8
LAY0_0
  6
Continuous
 62
     0
100
AcDbLine
 10
50617.82836914059
 20
58280.1208496094
 30
0.0
 11
50631.9488525391
 21
58404.9682617188
 31
0.0
  0
LINE
  5
430
330
1E
100
AcDbEntity
  8
LAY0_0
  6
Continuous
 62
     0
100
AcDbLine
 10
62710.15625
 20
58117.40722656249
 30
0.0
 11
62267.8894042969
 21
56724.70092773441
 31
0.0
  0
LINE
  5
431
330
1E
100
AcDbEntity
  8
LAY0_0
  6
Continuous
 62
     0
100
AcDbLine
 10
50540.1794433594
 20
58404.9682617188
 30
0.0
 11
50770.01953125
 21
58404.9682617188
 31
0.0
  0
LINE
  5
432
330
1E
100
AcDbEntity
  8
LAY0_0
  6
Continuous
 62
     0
100
AcDbLine
 10
77438.1713867188
 20
57768.3288574219
 30
0.0
 11
77407.0251464844
 21
57539.8193359375
 31
0.0
  0
LINE
  5
433
330
1E
100
AcDbEntity
  8
LAY0_0
  6
Continuous
 62
     0
100
AcDbLine
 10
85685.62622070309
 20
52651.47094726559
 30
0.0
 11
86099.2614746094
 21
52651.47094726559
 31
0.0
  0
LINE
  5
434
330
1E
100
AcDbEntity
  8
LAY0_0
  6
Continuous
 62
     0
100
AcDbLine
 10
63105.7373046875
 20
59425.50659179691
 30
0.0
 11
63074.5849609375
 21
59196.9970703125
 31
0.0
  0
LINE
  5
435
330
1E
100
AcDbEntity
  8
LAY0_0
  6
Continuous
 62
     0
100
AcDbLine
 10
50586.97814941409
 20
57901.39770507809
 30
0.0
 11
50586.97814941409
 21
57786.80419921879
 31
0.0
  0
LINE
  5
436
330
1E
100
AcDbEntity
  8
LAY0_0
  6
Continuous
 62
     0
100
AcDbLine
 10
50770.01953125
 20
58404.9682617188
 30
0.0
 11
50770.01953125
 21
58884.77172851559
 31
0.0
  0
LINE
  5
437
330
1E
100
AcDbEntity
  8
LAY0_0
  6
Continuous
 62
     0
100
AcDbLine
 10
63290.0268554688
 20
59172.07641601559
 30
0.0
 11
63395.068359375
 21
59283.9782714844
 31
0.0
  0
LINE
  5
438
330
1E
100
AcDbEntity
  8
LAY0_0
  6
Continuous
 62
     0
100
AcDbLine
 10
63395.068359375
 20
59283.9782714844
 30
0.0
 11
63321.1791992188
 21
59400.5920410156
 31
0.0
  0
LINE
  5
439
330
1E
100
AcDbEntity
  8
LAY0_0
  6
Continuous
 62
     0
100
AcDbLine
 10
52123.75488281249
 20
49365.5151367188
 30
0.0
 11
52775.7568359375
 21
49365.5151367188
 31
0.0
  0
LINE
  5
43A
330
1E
100
AcDbEntity
  8
LAY0_0
  6
Continuous
 62
     0
100
AcDbLine
 10
58187.2863769531
 20
52080.3283691406
 30
0.0
 11
57207.12890625
 21
52080.3283691406
 31
0.0
  0
LINE
  5
43B
330
1E
100
AcDbEntity
  8
LAY0_0
  6
Continuous
 62
     0
100
AcDbLine
 10
74355.8837890625
 20
58124.71923828129
 30
0.0
 11
74786.77978515629
 21
58074.8962402344
 31
0.0
  0
LINE
  5
43C
330
1E
100
AcDbEntity
  8
LAY0_0
  6
Continuous
 62
     0
100
AcDbLine
 10
53112.1276855469
 20
55746.7102050781
 30
0.0
 11
53163.82446289059
 21
55794.3298339844
 31
0.0
  0
LINE
  5
43D
330
1E
100
AcDbEntity
  8
LAY0_0
  6
Continuous
 62
     0
100
AcDbLine
 10
53163.6962890625
 20
51841.9494628906
 30
0.0
 11
53163.6962890625
 21
51127.6550292969
 31
0.0
  0
LINE
  5
43E
330
1E
100
AcDbEntity
  8
LAY0_0
  6
Continuous
 62
     0
100
AcDbLine
 10
53163.6962890625
 20
51484.8083496094
 30
0.0
 11
54146.06933593749
 21
51484.8083496094
 31
0.0
  0
LINE
  5
43F
330
1E
100
AcDbEntity
  8
LAY0_0
  6
Continuous
 62
     0
100
AcDbLine
 10
53939.2944335938
 20
55777.0141601563
 30
0.0
 11
53629.1259765625
 21
55777.0141601563
 31
0.0
  0
LINE
  5
440
330
1E
100
AcDbEntity
  8
LAY0_0
  6
Continuous
 62
     0
100
AcDbLine
 10
53048.2543945313
 20
56333.79516601559
 30
0.0
 11
53209.8388671875
 21
56333.79516601559
 31
0.0
  0
LINE
  5
441
330
1E
100
AcDbEntity
  8
LAY0_0
  6
Continuous
 62
     0
100
AcDbLine
 10
77727.50854492191
 20
57626.78833007809
 30
0.0
 11
79365.4541015625
 21
57437.40844726559
 31
0.0
  0
LINE
  5
442
330
1E
100
AcDbEntity
  8
LAY0_0
  6
Continuous
 62
     0
100
AcDbLine
 10
68680.70678710941
 20
58780.90820312499
 30
0.0
 11
68649.560546875
 21
58552.3864746094
 31
0.0
  0
LINE
  5
443
330
1E
100
AcDbEntity
  8
LAY0_0
  6
Continuous
 62
     0
100
AcDbLine
 10
62890.283203125
 20
59450.41503906249
 30
0.0
 11
63321.1791992188
 21
59400.5920410156
 31
0.0
  0
LINE
  5
444
330
1E
100
AcDbEntity
  8
LAY0_0
  6
Continuous
 62
     0
100
AcDbLine
 10
74571.337890625
 20
58099.8046875
 30
0.0
 11
74540.18554687499
 21
57871.29516601559
 31
0.0
  0
LINE
  5
445
330
1E
100
AcDbEntity
  8
LAY0_0
  6
Continuous
 62
     0
100
AcDbLine
 10
63395.068359375
 20
59283.9782714844
 30
0.0
 11
68362.35961914059
 21
58709.6435546875
 31
0.0
  0
LINE
  5
446
330
1E
100
AcDbEntity
  8
LAY0_0
  6
Continuous
 62
     0
100
AcDbLine
 10
53629.1259765625
 20
55746.7102050781
 30
0.0
 11
53577.4536132813
 21
55794.3298339844
 31
0.0
  0
LINE
  5
447
330
1E
100
AcDbEntity
  8
LAY0_0
  6
Continuous
 62
     0
100
AcDbLine
 10
68362.35961914059
 20
58709.6435546875
 30
0.0
 11
68465.2587890625
 21
58805.81665039059
 31
0.0
  0
LINE
  5
448
330
1E
100
AcDbEntity
  8
LAY0_0
  6
Continuous
 62
     0
100
AcDbLine
 10
77222.71118164059
 20
57793.24340820309
 30
0.0
 11
77653.61938476559
 21
57743.41430664059
 31
0.0
  0
LINE
  5
449
330
1E
100
AcDbEntity
  8
LAY0_0
  6
Continuous
 62
     0
100
AcDbLine
 10
77191.56494140629
 20
57564.7216796875
 30
0.0
 11
77119.81811523441
 21
57697.0642089844
 31
0.0
  0
LINE
  5
44A
330
1E
100
AcDbEntity
  8
LAY0_0
  6
Continuous
 62
     0
100
AcDbLine
 10
68970.0439453125
 20
58639.3676757813
 30
0.0
 11
68896.15478515629
 21
58755.98754882809
 31
0.0
  0
LINE
  5
44B
330
1E
100
AcDbEntity
  8
LAY0_0
  6
Continuous
 62
     0
100
AcDbLine
 10
54242.9809570313
 20
52080.3283691406
 30
0.0
 11
53262.8173828125
 21
52080.3283691406
 31
0.0
  0
LINE
  5
44C
330
1E
100
AcDbEntity
  8
LAY0_0
  6
Continuous
 62
     0
100
AcDbLine
 10
55588.8916015625
 20
52503.81469726559
 30
0.0
 11
55588.8916015625
 21
52789.7705078125
 31
0.0
  0
LINE
  5
44D
330
1E
100
AcDbEntity
  8
LAY0_0
  6
Continuous
 62
     0
100
AcDbLine
 10
59902.3559570313
 20
49689.0686035156
 30
0.0
 11
59735.9619140625
 21
49689.0686035156
 31
0.0
  0
LINE
  5
44E
330
1E
100
AcDbEntity
  8
LAY0_0
  6
Continuous
 62
     0
100
AcDbLine
 10
53752.8930664063
 20
52080.3283691406
 30
0.0
 11
53752.8930664063
 21
52749.17602539059
 31
0.0
  0
LINE
  5
44F
330
1E
100
AcDbEntity
  8
LAY0_0
  6
Continuous
 62
     0
100
AcDbLine
 10
68434.1064453125
 20
58577.294921875
 30
0.0
 11
68865.00244140629
 21
58527.4719238281
 31
0.0
  0
LINE
  5
450
330
1E
100
AcDbEntity
  8
LAY0_0
  6
Continuous
 62
     0
100
AcDbLine
 10
52594.94628906249
 20
53708.8745117188
 30
0.0
 11
53577.3315429688
 21
53708.8745117188
 31
0.0
  0
LINE
  5
451
330
1E
100
AcDbEntity
  8
LAY0_0
  6
Continuous
 62
     0
100
AcDbLine
 10
87860.22338867191
 20
49318.1335449219
 30
0.0
 11
87860.22338867191
 21
49699.3835449219
 31
0.0
  0
LINE
  5
452
330
1E
100
AcDbEntity
  8
LAY0_0
  6
Continuous
 62
     0
100
AcDbLine
 10
56152.392578125
 20
52890.4235839844
 30
0.0
 11
55500.390625
 21
52890.4235839844
 31
0.0
  0
LINE
  5
453
330
1E
100
AcDbEntity
  8
LAY0_0
  6
Continuous
 62
     0
100
AcDbLine
 10
54418.6950683594
 20
54882.4462890625
 30
0.0
 11
53903.4301757813
 21
54882.4462890625
 31
0.0
  0
LINE
  5
454
330
1E
100
AcDbEntity
  8
LAY0_0
  6
Continuous
 62
     0
100
AcDbLine
 10
53903.4301757813
 20
54215.7775878906
 30
0.0
 11
54352.8930664063
 21
54215.7775878906
 31
0.0
  0
LINE
  5
455
330
1E
100
AcDbEntity
  8
LAY0_0
  6
Continuous
 62
     0
100
AcDbLine
 10
53784.1430664063
 20
54882.4462890625
 30
0.0
 11
53784.1430664063
 21
54215.7775878906
 31
0.0
  0
LINE
  5
456
330
1E
100
AcDbEntity
  8
LAY0_0
  6
Continuous
 62
     0
100
AcDbLine
 10
55500.390625
 20
52890.4235839844
 30
0.0
 11
55500.390625
 21
51841.9494628906
 31
0.0
  0
LINE
  5
457
330
1E
100
AcDbEntity
  8
LAY0_0
  6
Continuous
 62
     0
100
AcDbLine
 10
50624.63073730469
 20
57711.4318847656
 30
0.0
 11
50463.0401611328
 21
57711.4318847656
 31
0.0
  0
LINE
  5
458
330
1E
100
AcDbEntity
  8
LAY0_0
  6
Continuous
 62
     0
100
AcDbLine
 10
53172.1862792969
 20
57198.7487792969
 30
0.0
 11
53172.1862792969
 21
57084.1491699219
 31
0.0
  0
LINE
  5
45A
330
1E
100
AcDbEntity
  8
LAY0_0
  6
Continuous
 62
     0
100
AcDbLine
 10
62787.3901367188
 20
59354.2358398438
 30
0.0
 11
62890.283203125
 21
59450.41503906249
 31
0.0
  0
LINE
  5
45B
330
1E
100
AcDbEntity
  8
LAY0_0
  6
Continuous
 62
     0
100
AcDbLine
 10
83514.05029296879
 20
53746.7163085938
 30
0.0
 11
83514.05029296879
 21
52850.83618164059
 31
0.0
  0
LINE
  5
45C
330
1E
100
AcDbEntity
  8
LAY0_0
  6
Continuous
 62
     0
100
AcDbLine
 10
53209.8388671875
 20
57084.1491699219
 30
0.0
 11
53048.2543945313
 21
57084.1491699219
 31
0.0
  0
LINE
  5
45D
330
1E
100
AcDbEntity
  8
LAY0_0
  6
Continuous
 62
     0
100
AcDbLine
 10
53094.41528320309
 20
56333.79516601559
 30
0.0
 11
53094.41528320309
 21
56448.3825683594
 31
0.0
  0
LINE
  5
45E
330
1E
100
AcDbEntity
  8
LAY0_0
  6
Continuous
 62
     0
100
AcDbLine
 10
52880.2124023438
 20
57270.5200195313
 30
0.0
 11
53176.6235351563
 21
57270.5200195313
 31
0.0
  0
LINE
  5
45F
330
1E
100
AcDbEntity
  8
LAY0_0
  6
Continuous
 62
     0
100
AcDbLine
 10
87136.3647460938
 20
49318.1335449219
 30
0.0
 11
87136.3647460938
 21
49699.3835449219
 31
0.0
  0
LINE
  5
460
330
1E
100
AcDbEntity
  8
LAY0_0
  6
Continuous
 62
     0
100
AcDbLine
 10
81463.0493164063
 20
57130.9936523438
 30
0.0
 11
81838.4338378906
 21
57090.1428222656
 31
0.0
  0
LINE
  5
461
330
1E
100
AcDbEntity
  8
LAY0_0
  6
Continuous
 62
     0
100
AcDbLine
 10
89666.85791015631
 20
51067.7734375
 30
0.0
 11
89666.85791015631
 21
51794.3237304688
 31
0.0
  0
LINE
  5
462
330
1E
100
AcDbEntity
  8
LAY0_0
  6
Continuous
 62
     0
100
AcDbLine
 10
62707.5317382813
 20
59363.4765625
 30
0.0
 11
62787.3901367188
 21
59354.2358398438
 31
0.0
  0
LINE
  5
463
330
1E
100
AcDbEntity
  8
LAY0_0
  6
Continuous
 62
     0
100
AcDbLine
 10
62859.130859375
 20
59221.8994140625
 30
0.0
 11
63290.0268554688
 21
59172.07641601559
 31
0.0
  0
LINE
  5
464
330
1E
100
AcDbEntity
  8
LAY0_0
  6
Continuous
 62
     0
100
AcDbLine
 10
51819.384765625
 20
57032.4340820313
 30
0.0
 11
51804.6325683594
 21
56820.6237792969
 31
0.0
  0
LINE
  5
465
330
1E
100
AcDbEntity
  8
LAY0_0
  6
Continuous
 62
     0
100
AcDbLine
 10
52880.2124023438
 20
57460.9985351563
 30
0.0
 11
52880.2124023438
 21
57270.5200195313
 31
0.0
  0
LINE
  5
466
330
1E
100
AcDbEntity
  8
LAY0_0
  6
Continuous
 62
     0
100
AcDbLine
 10
62859.130859375
 20
59221.8994140625
 30
0.0
 11
62787.3901367188
 21
59354.2358398438
 31
0.0
  0
LINE
  5
467
330
1E
100
AcDbEntity
  8
LAY0_0
  6
Continuous
 62
     0
100
AcDbLine
 10
53176.6235351563
 20
57460.9985351563
 30
0.0
 11
53176.6235351563
 21
57270.5200195313
 31
0.0
  0
LINE
  5
468
330
1E
100
AcDbEntity
  8
LAY0_0
  6
Continuous
 62
     0
100
AcDbLine
 10
53176.6235351563
 20
57460.9985351563
 30
0.0
 11
52880.2124023438
 21
57460.9985351563
 31
0.0
  0
LINE
  5
469
330
1E
100
AcDbEntity
  8
LAY0_0
  6
Continuous
 62
     0
100
AcDbLine
 10
84134.5031738281
 20
51067.7734375
 30
0.0
 11
84134.5031738281
 21
51794.3237304688
 31
0.0
  0
LINE
  5
46A
330
1E
100
AcDbEntity
  8
LAY0_0
  6
Continuous
 62
     0
100
AcDbLine
 10
86876.0192871094
 20
49699.3835449219
 30
0.0
 11
86875.5920410156
 21
49699.3835449219
 31
0.0
  0
LINE
  5
46B
330
1E
100
AcDbEntity
  8
LAY0_0
  6
Continuous
 62
     0
100
AcDbLine
 10
74860.6689453125
 20
57958.2763671875
 30
0.0
 11
74786.77978515629
 21
58074.8962402344
 31
0.0
  0
LINE
  5
46C
330
1E
100
AcDbEntity
  8
LAY0_0
  6
Continuous
 62
     0
100
AcDbLine
 10
53577.4536132813
 20
55794.3298339844
 30
0.0
 11
53163.82446289059
 21
55794.3298339844
 31
0.0
  0
LINE
  5
46E
330
1E
100
AcDbEntity
  8
LAY0_0
  6
Continuous
 62
     0
100
AcDbLine
 10
59653.6066037839
 20
54661.94431884045
 30
0.0
 11
59556.9458007813
 21
53351.7395019531
 31
0.0
  0
LINE
  5
46F
330
1E
100
AcDbEntity
  8
LAY0_0
  6
Continuous
 62
     0
100
AcDbLine
 10
53939.2944335938
 20
55413.3728027344
 30
0.0
 11
53939.2944335938
 21
55777.0141601563
 31
0.0
  0
LINE
  5
470
330
1E
100
AcDbEntity
  8
LAY0_0
  6
Continuous
 62
     0
100
AcDbLine
 10
87136.3647460938
 20
49699.3835449219
 30
0.0
 11
86876.0192871094
 21
49699.3835449219
 31
0.0
  0
LINE
  5
471
330
1E
100
AcDbEntity
  8
LAY0_0
  6
Continuous
 62
     0
100
AcDbLine
 10
55128.4545898438
 20
51484.8083496094
 30
0.0
 11
56110.8337402344
 21
51484.8083496094
 31
0.0
  0
LINE
  5
472
330
1E
100
AcDbEntity
  8
LAY0_0
  6
Continuous
 62
     0
100
AcDbLine
 10
54559.7106933594
 20
53708.8745117188
 30
0.0
 11
55542.08984375
 21
53708.8745117188
 31
0.0
  0
LINE
  5
473
330
1E
100
AcDbEntity
  8
LAY0_0
  6
Continuous
 62
     0
100
AcDbLine
 10
59213.0798339844
 20
51841.9494628906
 30
0.0
 11
59213.0798339844
 21
51127.6550292969
 31
0.0
  0
LINE
  5
474
330
1E
100
AcDbEntity
  8
LAY0_0
  6
Continuous
 62
     0
100
AcDbLine
 10
56679.5776367188
 20
53708.8745117188
 30
0.0
 11
59781.8298339844
 21
53708.8745117188
 31
0.0
  0
LINE
  5
476
330
1E
100
AcDbEntity
  8
LAY0_0
  6
CENTER
 62
     0
 48
100.0
100
AcDbLine
 10
57285.91918945309
 20
45990.33813476559
 30
0.0
 11
56847.6257324219
 21
45937.1826171875
 31
0.0
  0
LINE
  5
477
330
1E
100
AcDbEntity
  8
LAY0_0
  6
Continuous
 62
     0
100
AcDbLine
 10
62143.3715820313
 20
49251.4770507813
 30
0.0
 11
80179.60205078129
 21
49251.4770507813
 31
0.0
  0
LINE
  5
478
330
1E
100
AcDbEntity
  8
LAY0_0
  6
Continuous
 62
     0
100
AcDbLine
 10
62143.3715820313
 20
49251.4770507813
 30
0.0
 11
62143.3715820313
 21
48651.4770507813
 31
0.0
  0
LINE
  5
479
330
1E
100
AcDbEntity
  8
LAY0_0
  6
Continuous
 62
     0
100
AcDbLine
 10
80179.60205078129
 20
41226.3793945313
 30
0.0
 11
62143.3715820313
 21
41226.3793945313
 31
0.0
  0
LINE
  5
47A
330
1E
100
AcDbEntity
  8
LAY0_0
  6
Continuous
 62
     0
100
AcDbLine
 10
62143.3715820313
 20
41226.3793945313
 30
0.0
 11
62143.37158203129
 21
40926.42822265629
 31
0.0
  0
LINE
  5
47C
330
1E
100
AcDbEntity
  8
LAY0_0
  6
Continuous
 62
     0
100
AcDbLine
 10
79532.82470703129
 20
48651.4770507813
 30
0.0
 11
79532.82470703129
 21
49251.4770507813
 31
0.0
  0
LINE
  5
47E
330
1E
100
AcDbEntity
  8
LAY0_0
  6
Continuous
 62
     0
100
AcDbLine
 10
91424.7924804688
 20
45937.1826171875
 30
0.0
 11
91424.7924804688
 21
44331.6772460938
 31
0.0
  0
LINE
  5
47F
330
1E
100
AcDbEntity
  8
LAY0_0
  6
Continuous
 62
     0
100
AcDbLine
 10
91424.7924804688
 20
44331.6772460938
 30
0.0
 11
45924.79248046879
 21
44331.67724609379
 31
0.0
  0
LINE
  5
481
330
1E
100
AcDbEntity
  8
LAY0_0
  6
Continuous
 62
     0
100
AcDbLine
 10
92542.0654296875
 20
41726.3793945313
 30
0.0
 11
92542.0654296875
 21
25726.3793945313
 31
0.0
  0
LINE
  5
483
330
1E
100
AcDbEntity
  8
LAY0_0
  6
Continuous
 62
     0
100
AcDbLine
 10
91032.65380859381
 20
41726.3793945313
 30
0.0
 11
93335.33935546881
 21
41726.3793945313
 31
0.0
  0
LINE
  5
484
330
1E
100
AcDbEntity
  8
LAY0_0
  6
Continuous
 62
     0
100
AcDbLine
 10
91584.3017578125
 20
45937.1826171875
 30
0.0
 11
92585.15625000001
 21
45937.1826171875
 31
0.0
  0
LINE
  5
485
330
1E
100
AcDbEntity
  8
LAY0_0
  6
Continuous
 62
     0
100
AcDbLine
 10
91584.3017578125
 20
48937.1826171875
 30
0.0
 11
92585.15625000001
 21
48937.1826171875
 31
0.0
  0
LINE
  5
486
330
1E
100
AcDbEntity
  8
LAY0_0
  6
Continuous
 62
     0
100
AcDbLine
 10
92202.23388671881
 20
48937.1826171875
 30
0.0
 11
92202.23388671881
 21
45937.1826171875
 31
0.0
  0
LWPOLYLINE
  5
487
330
1E
100
AcDbEntity
  8
LAY0_0
  6
Continuous
 62
     0
100
AcDbPolyline
 90
        2
 70
     0
 43
0.0
 10
45591.42761230469
 20
47556.2316894531
 10
45643.13659667969
 20
47556.2316894531
  0
LWPOLYLINE
  5
48B
330
1E
100
AcDbEntity
  8
LAY0_0
  6
Continuous
 62
     0
100
AcDbPolyline
 90
        2
 70
     0
 43
0.0
 10
89749.57885742188
 20
55841.943359375
 10
89770.25756835939
 20
55841.943359375
  0
LWPOLYLINE
  5
497
330
1E
100
AcDbEntity
  8
LAY0_0
  6
Continuous
 62
     0
100
AcDbPolyline
 90
        2
 70
     0
 43
0.0
 10
51664.27612304691
 20
60222.8942871094
 10
51715.97290039059
 20
60222.8942871094
  0
LWPOLYLINE
  5
49B
330
1E
100
AcDbEntity
  8
LAY0_0
  6
Continuous
 62
     0
100
AcDbPolyline
 90
        2
 70
     0
 43
0.0
 10
53263.91582576094
 20
60274.93735737333
 10
53887.55493164059
 20
60080.0537109375
  0
LWPOLYLINE
  5
4A3
330
1E
100
AcDbEntity
  8
LAY0_0
  6
Continuous
 62
     0
100
AcDbPolyline
 90
        2
 70
     0
 43
0.0
 10
48665.43579101559
 20
48937.1826171875
 10
48665.43579101559
 20
48889.5690917969
  0
LWPOLYLINE
  5
4A7
330
1E
100
AcDbEntity
  8
LAY0_0
  6
Continuous
 62
     0
100
AcDbPolyline
 90
        2
 70
     0
 43
0.0
 10
82583.36181640629
 20
51794.3237304688
 10
82635.07080078129
 20
51794.3237304688
  0
LWPOLYLINE
  5
4AB
330
1E
100
AcDbEntity
  8
LAY0_0
  6
Continuous
 62
     0
100
AcDbPolyline
 90
        2
 70
     0
 43
0.0
 10
58696.0388183594
 20
49889.5629882813
 10
58696.0388183594
 20
49841.943359375
  0
LWPOLYLINE
  5
4AF
330
1E
100
AcDbEntity
  8
LAY0_0
  6
Continuous
 62
     0
100
AcDbPolyline
 90
        2
 70
     0
 43
0.0
 10
85789.03198242191
 20
50937.1887207031
 10
85789.03198242191
 20
50889.5629882813
  0
LWPOLYLINE
  5
4B7
330
1E
100
AcDbEntity
  8
LAY0_0
  6
Continuous
 62
     0
100
AcDbPolyline
 90
        2
 70
     0
 43
0.0
 10
53008.5815429688
 20
55222.8942871094
 10
53008.5815429688
 20
55080.0415039063
  0
LWPOLYLINE
  5
4BB
330
1E
100
AcDbEntity
  8
LAY0_0
  6
Continuous
 62
     0
100
AcDbPolyline
 90
        2
 70
     0
 43
0.0
 10
53784.1430664063
 20
55127.6611328125
 10
53784.1430664063
 20
55080.0415039063
  0
LWPOLYLINE
  5
4BF
330
1E
100
AcDbEntity
  8
LAY0_0
  6
Continuous
 62
     0
100
AcDbPolyline
 90
        2
 70
     0
 43
0.0
 10
86719.70214843749
 20
51508.6120605469
 10
86719.70214843749
 20
51460.9985351563
  0
LWPOLYLINE
  5
4C7
330
1E
100
AcDbEntity
  8
LAY0_0
  6
Continuous
 62
     0
100
AcDbPolyline
 90
        2
 70
     0
 43
0.0
 10
45821.6979980469
 20
48984.8022460938
 10
45925.10375976559
 20
48889.5690917969
  0
LWPOLYLINE
  5
4CB
330
1E
100
AcDbEntity
  8
LAY0_0
  6
Continuous
 62
     0
100
AcDbPolyline
 90
        2
 70
     0
 43
0.0
 10
59626.7150878906
 20
51127.6550292969
 10
59678.41796875
 20
51127.6550292969
  0
LWPOLYLINE
  5
4CF
330
1E
100
AcDbEntity
  8
LAY0_0
  6
Continuous
 62
     0
100
AcDbPolyline
 90
        2
 70
     0
 43
0.0
 10
84910.05859375
 20
51794.3237304688
 10
84961.767578125
 20
51794.3237304688
  0
LWPOLYLINE
  5
4D3
330
1E
100
AcDbEntity
  8
LAY0_0
  6
Continuous
 62
     0
100
AcDbPolyline
 90
        2
 70
     0
 43
0.0
 10
56627.8686523438
 20
51127.6550292969
 10
56679.5776367188
 20
51127.6550292969
  0
LWPOLYLINE
  5
4D7
330
1E
100
AcDbEntity
  8
LAY0_0
  6
Continuous
 62
     0
100
AcDbPolyline
 90
        2
 70
     0
 43
0.0
 10
87960.6079101563
 20
51508.6120605469
 10
87960.6079101563
 20
51460.9985351563
  0
LWPOLYLINE
  5
4DB
330
1E
100
AcDbEntity
  8
LAY0_0
  6
Continuous
 62
     0
100
AcDbPolyline
 90
        2
 70
     0
 43
0.0
 10
85789.03198242191
 20
51794.3237304688
 10
85840.73486328129
 20
51794.3237304688
  0
LWPOLYLINE
  5
4DF
330
1E
100
AcDbEntity
  8
LAY0_0
  6
Continuous
 62
     0
100
AcDbPolyline
 90
        2
 70
     0
 43
0.0
 10
90700.93994140631
 20
51222.900390625
 10
90700.93994140631
 20
51175.2807617188
  0
LWPOLYLINE
  5
4E3
330
1E
100
AcDbEntity
  8
LAY0_0
  6
Continuous
 62
     0
100
AcDbPolyline
 90
        2
 70
     0
 43
0.0
 10
84134.5031738281
 20
51841.9494628906
 10
84134.5031738281
 20
51794.3237304688
  0
LWPOLYLINE
  5
4E7
330
1E
100
AcDbEntity
  8
LAY0_0
  6
Continuous
 62
     0
100
AcDbPolyline
 90
        2
 70
     0
 43
0.0
 10
86150.96435546879
 20
51794.3237304688
 10
86616.3024902344
 20
51794.3237304688
  0
LWPOLYLINE
  5
4EB
330
1E
100
AcDbEntity
  8
LAY0_0
  6
Continuous
 62
     0
100
AcDbPolyline
 90
        2
 70
     0
 43
0.0
 10
57713.6596679688
 20
51127.6550292969
 10
57920.4772949219
 20
51127.6550292969
  0
LWPOLYLINE
  5
4EF
330
1E
100
AcDbEntity
  8
LAY0_0
  6
Continuous
 62
     0
100
AcDbPolyline
 90
        2
 70
     0
 43
0.0
 10
57661.962890625
 20
51127.6550292969
 10
57713.6596679688
 20
51127.6550292969
  0
LWPOLYLINE
  5
4F7
330
1E
100
AcDbEntity
  8
LAY0_0
  6
Continuous
 62
     0
100
AcDbPolyline
 90
        2
 70
     0
 43
0.0
 10
48665.43579101559
 20
48889.5690917969
 10
48717.1325683594
 20
48889.5690917969
  0
LWPOLYLINE
  5
4FB
330
1E
100
AcDbEntity
  8
LAY0_0
  6
Continuous
 62
     0
100
AcDbPolyline
 90
        2
 70
     0
 43
0.0
 10
86047.5524902344
 20
51794.3237304688
 10
86099.2614746094
 20
51794.3237304688
  0
LWPOLYLINE
  5
503
330
1E
100
AcDbEntity
  8
LAY0_0
  6
Continuous
 62
     0
100
AcDbPolyline
 90
        2
 70
     0
 43
0.0
 10
91217.9748535156
 20
51127.6550292969
 10
91269.67773437501
 20
51080.04150390629
  0
LWPOLYLINE
  5
507
330
1E
100
AcDbEntity
  8
LAY0_0
  6
Continuous
 62
     0
100
AcDbPolyline
 90
        2
 70
     0
 43
0.0
 10
53008.5815429688
 20
55032.4279785156
 10
53008.5815429688
 20
54984.80834960941
  0
LWPOLYLINE
  5
50F
330
1E
100
AcDbEntity
  8
LAY0_0
  6
Continuous
 62
     0
100
AcDbPolyline
 90
        2
 70
     0
 43
0.0
 10
85789.03198242191
 20
51460.9985351563
 10
85789.03198242191
 20
51413.3728027344
  0
LWPOLYLINE
  5
513
330
1E
100
AcDbEntity
  8
LAY0_0
  6
Continuous
 62
     0
100
AcDbPolyline
 90
        2
 70
     0
 43
0.0
 10
48768.8415527344
 20
52175.2807617188
 10
48820.5383300781
 20
52175.2807617188
  0
LWPOLYLINE
  5
517
330
1E
100
AcDbEntity
  8
LAY0_0
  6
Continuous
 62
     0
100
AcDbPolyline
 90
        2
 70
     0
 43
0.0
 10
85789.03198242191
 20
51746.71020507809
 10
85789.03198242191
 20
51460.9985351563
  0
LWPOLYLINE
  5
51F
330
1E
100
AcDbEntity
  8
LAY0_0
  6
Continuous
 62
     0
100
AcDbPolyline
 90
        2
 70
     0
 43
0.0
 10
88322.5463867188
 20
54127.6672363281
 10
88374.2431640625
 20
54127.6672363281
  0
LWPOLYLINE
  5
523
330
1E
100
AcDbEntity
  8
LAY0_0
  6
Continuous
 62
     0
100
AcDbPolyline
 90
        2
 70
     0
 43
0.0
 10
82479.96826171879
 20
52699.09667968749
 10
82479.96826171879
 20
52651.47094726559
  0
LWPOLYLINE
  5
534
330
1E
100
AcDbEntity
  8
LAY0_0
  6
Continuous
 62
     0
100
AcDbPolyline
 90
        2
 70
     0
 43
0.0
 10
90959.4543457031
 20
51127.6550292969
 10
91166.2719726563
 20
51127.6550292969
  0
LWPOLYLINE
  5
53C
330
1E
100
AcDbEntity
  8
LAY0_0
  6
Continuous
 62
     0
100
AcDbPolyline
 90
        2
 70
     0
 43
0.0
 10
88374.2431640625
 20
54127.6672363281
 10
88374.2431640625
 20
54080.0415039063
  0
LWPOLYLINE
  5
540
330
1E
100
AcDbEntity
  8
LAY0_0
  6
Continuous
 62
     0
100
AcDbPolyline
 90
        2
 70
     0
 43
0.0
 10
90752.63671874999
 20
51127.6550292969
 10
90804.34570312499
 20
51127.6550292969
  0
LWPOLYLINE
  5
544
330
1E
100
AcDbEntity
  8
LAY0_0
  6
Continuous
 62
     0
100
AcDbPolyline
 90
        2
 70
     0
 43
0.0
 10
84031.09130859379
 20
53127.6550292969
 10
84031.09130859379
 20
53080.03540039059
  0
LWPOLYLINE
  5
548
330
1E
100
AcDbEntity
  8
LAY0_0
  6
Continuous
 62
     0
100
AcDbPolyline
 90
        2
 70
     0
 43
0.0
 10
51974.5056152344
 20
57270.5200195313
 10
51974.5056152344
 20
57222.900390625
  0
LWPOLYLINE
  5
54C
330
1E
100
AcDbEntity
  8
LAY0_0
  6
Continuous
 62
     0
100
AcDbPolyline
 90
        2
 70
     0
 43
0.0
 10
51612.5671386719
 20
53460.9985351563
 10
51612.5671386719
 20
53413.37890625
  0
LWPOLYLINE
  5
550
330
1E
100
AcDbEntity
  8
LAY0_0
  6
Continuous
 62
     0
100
AcDbPolyline
 90
        2
 70
     0
 43
0.0
 10
85789.03198242191
 20
50699.09057617191
 10
85840.73486328129
 20
50699.09057617191
  0
LWPOLYLINE
  5
558
330
1E
100
AcDbEntity
  8
LAY0_0
  6
Continuous
 62
     0
100
AcDbPolyline
 90
        2
 70
     0
 43
0.0
 10
90804.34570312499
 20
51127.6550292969
 10
90856.0424804688
 20
51127.6550292969
  0
LWPOLYLINE
  5
55C
330
1E
100
AcDbEntity
  8
LAY0_0
  6
Continuous
 62
     0
100
AcDbPolyline
 90
        2
 70
     0
 43
0.0
 10
60815.9118652344
 20
49032.42797851559
 10
60815.9118652344
 20
48984.8022460938
  0
LWPOLYLINE
  5
560
330
1E
100
AcDbEntity
  8
LAY0_0
  6
Continuous
 62
     0
100
AcDbPolyline
 90
        2
 70
     0
 43
0.0
 10
60764.208984375
 20
49460.99853515629
 10
60815.9118652344
 20
49460.99853515629
  0
LWPOLYLINE
  5
564
330
1E
100
AcDbEntity
  8
LAY0_0
  6
Continuous
 62
     0
100
AcDbPolyline
 90
        2
 70
     0
 43
0.0
 10
49647.80578613281
 20
53794.3237304688
 10
49647.80578613281
 20
53746.7163085938
  0
LWPOLYLINE
  5
568
330
1E
100
AcDbEntity
  8
LAY0_0
  6
Continuous
 62
     0
100
AcDbPolyline
 90
        2
 70
     0
 43
0.0
 10
45718.2922363281
 20
48699.0905761719
 10
45821.6979980469
 20
48651.4770507813
  0
LWPOLYLINE
  5
56C
330
1E
100
AcDbEntity
  8
LAY0_0
  6
Continuous
 62
     0
100
AcDbPolyline
 90
        2
 70
     0
 43
0.0
 10
49647.80578613281
 20
53841.94946289059
 10
49647.80578613281
 20
53794.3237304688
  0
LWPOLYLINE
  5
570
330
1E
100
AcDbEntity
  8
LAY0_0
  6
Continuous
 62
     0
100
AcDbPolyline
 90
        2
 70
     0
 43
0.0
 10
60815.9118652344
 20
49460.99853515629
 10
60815.9118652344
 20
49413.37890625
  0
LWPOLYLINE
  5
574
330
1E
100
AcDbEntity
  8
LAY0_0
  6
Continuous
 62
     0
100
AcDbPolyline
 90
        2
 70
     0
 43
0.0
 10
45925.10375976559
 20
48841.94335937499
 10
45821.6979980469
 20
48651.4770507813
  0
LWPOLYLINE
  5
578
330
1E
100
AcDbEntity
  8
LAY0_0
  6
Continuous
 62
     0
100
AcDbPolyline
 90
        2
 70
     0
 43
0.0
 10
88322.5463867188
 20
53413.37890625
 10
88374.2431640625
 20
53413.37890625
  0
LWPOLYLINE
  5
57C
330
1E
100
AcDbEntity
  8
LAY0_0
  6
Continuous
 62
     0
100
AcDbPolyline
 90
        2
 70
     0
 43
0.0
 10
85840.73486328129
 20
51794.3237304688
 10
86047.5524902344
 20
51794.3237304688
  0
LWPOLYLINE
  5
580
330
1E
100
AcDbEntity
  8
LAY0_0
  6
Continuous
 62
     0
100
AcDbPolyline
 90
        2
 70
     0
 43
0.0
 10
86719.70214843749
 20
51175.2807617188
 10
86719.70214843749
 20
51127.6550292969
  0
LWPOLYLINE
  5
588
330
1E
100
AcDbEntity
  8
LAY0_0
  6
Continuous
 62
     0
100
AcDbPolyline
 90
        2
 70
     0
 43
0.0
 10
86150.96435546879
 20
53460.9985351563
 10
86150.96435546879
 20
53413.37890625
  0
LWPOLYLINE
  5
58C
330
1E
100
AcDbEntity
  8
LAY0_0
  6
Continuous
 62
     0
100
AcDbPolyline
 90
        2
 70
     0
 43
0.0
 10
48820.5383300781
 20
52222.900390625
 10
48820.5383300781
 20
52175.2807617188
  0
LWPOLYLINE
  5
590
330
1E
100
AcDbEntity
  8
LAY0_0
  6
Continuous
 62
     0
100
AcDbPolyline
 90
        2
 70
     0
 43
0.0
 10
88059.6740722656
 20
35473.5595703125
 10
88059.1796875
 20
35423.2299804688
  0
LWPOLYLINE
  5
594
330
1E
100
AcDbEntity
  8
LAY0_0
  6
Continuous
 62
     0
100
AcDbPolyline
 90
        2
 70
     0
 43
0.0
 10
88007.9650878906
 20
35474.0356445313
 10
88059.6740722656
 20
35473.5595703125
  0
LWPOLYLINE
  5
59C
330
1E
100
AcDbEntity
  8
LAY0_0
  6
Continuous
 62
     0
100
AcDbPolyline
 90
        2
 70
     0
 43
0.0
 10
60026.9287109375
 20
29391.50390625
 10
60026.4404296875
 20
29341.162109375
  0
LWPOLYLINE
  5
5A0
330
1E
100
AcDbEntity
  8
LAY0_0
  6
Continuous
 62
     0
100
AcDbPolyline
 90
        2
 70
     0
 43
0.0
 10
59086.9384765625
 20
33728.83300781249
 10
59086.83279814918
 20
33718.07468440185
  0
LWPOLYLINE
  5
5A4
330
1E
100
AcDbEntity
  8
LAY0_0
  6
Continuous
 62
     0
100
AcDbPolyline
 90
        2
 70
     0
 43
0.0
 10
60026.9287109375
 20
39038.9404296875
 10
60026.4404296875
 20
38988.5986328125
  0
LWPOLYLINE
  5
5A8
330
1E
100
AcDbEntity
  8
LAY0_0
  6
Continuous
 62
     0
100
AcDbPolyline
 90
        2
 70
     0
 43
0.0
 10
56067.919921875
 20
52789.53247070309
 10
56067.919921875
 20
52741.9128417969
  0
LWPOLYLINE
  5
5B0
330
1E
100
AcDbEntity
  8
LAY0_0
  6
Continuous
 62
     0
100
AcDbPolyline
 90
        2
 70
     0
 43
0.0
 10
81297.0642089844
 20
26023.3276367188
 10
81296.56982421879
 20
25973.0041503906
  0
LWPOLYLINE
  5
5B4
330
1E
100
AcDbEntity
  8
LAY0_0
  6
Continuous
 62
     0
100
AcDbPolyline
 90
        2
 70
     0
 43
0.0
 10
83203.82080078129
 20
51365.7592773438
 10
83203.82080078129
 20
51127.6550292969
  0
LWPOLYLINE
  5
5B8
330
1E
100
AcDbEntity
  8
LAY0_0
  6
Continuous
 62
     0
100
AcDbPolyline
 90
        2
 70
     0
 43
0.0
 10
48820.5383300781
 20
53222.89428710941
 10
48820.5383300781
 20
53175.2807617188
  0
LWPOLYLINE
  5
5C4
330
1E
100
AcDbEntity
  8
LAY0_0
  6
Continuous
 62
     0
100
AcDbPolyline
 90
        3
 70
     0
 43
0.0
 10
45821.6979980469
 20
48651.4770507813
 10
45873.4069824219
 20
48556.2255859375
 10
45821.6979980469
 20
48508.6181640625
  0
LWPOLYLINE
  5
5C9
330
1E
100
AcDbEntity
  8
LAY0_0
  6
Continuous
 62
     0
100
AcDbPolyline
 90
        2
 70
     0
 43
0.0
 10
60815.9118652344
 20
49413.37890625
 10
60815.9118652344
 20
49032.42797851559
  0
LWPOLYLINE
  5
5CD
330
1E
100
AcDbEntity
  8
LAY0_0
  6
Continuous
 62
     0
100
AcDbPolyline
 90
        2
 70
     0
 43
0.0
 10
85789.03198242191
 20
49222.90649414059
 10
85789.03198242191
 20
49175.2868652344
  0
LWPOLYLINE
  5
5D1
330
1E
100
AcDbEntity
  8
LAY0_0
  6
Continuous
 62
     0
100
AcDbPolyline
 90
        2
 70
     0
 43
0.0
 10
84082.78808593751
 20
51794.3237304688
 10
84134.5031738281
 20
51794.3237304688
  0
LWPOLYLINE
  5
5D5
330
1E
100
AcDbEntity
  8
LAY0_0
  6
Continuous
 62
     0
100
AcDbPolyline
 90
        2
 70
     0
 43
0.0
 10
47217.7154541016
 20
48889.5690917969
 10
47269.41833496089
 20
48889.5690917969
  0
LWPOLYLINE
  5
5D9
330
1E
100
AcDbEntity
  8
LAY0_0
  6
Continuous
 62
     0
100
AcDbPolyline
 90
        2
 70
     0
 43
0.0
 10
59109.67407226559
 20
51127.6550292969
 10
59161.376953125
 20
51127.6550292969
  0
LWPOLYLINE
  5
5DD
330
1E
100
AcDbEntity
  8
LAY0_0
  6
Continuous
 62
     0
100
AcDbPolyline
 90
        2
 70
     0
 43
0.0
 10
85789.03198242191
 20
51413.3728027344
 10
85789.03198242191
 20
51365.7592773438
  0
LWPOLYLINE
  5
5E1
330
1E
100
AcDbEntity
  8
LAY0_0
  6
Continuous
 62
     0
100
AcDbPolyline
 90
        2
 70
     0
 43
0.0
 10
85272.0031738281
 20
51794.3237304688
 10
85323.6938476563
 20
51794.3237304688
  0
LWPOLYLINE
  5
5E5
330
1E
100
AcDbEntity
  8
LAY0_0
  6
Continuous
 62
     0
100
AcDbPolyline
 90
        2
 70
     0
 43
0.0
 10
84186.1938476563
 20
51794.3237304688
 10
84858.3618164063
 20
51794.3237304688
  0
LWPOLYLINE
  5
5E9
330
1E
100
AcDbEntity
  8
LAY0_0
  6
Continuous
 62
     0
100
AcDbPolyline
 90
        2
 70
     0
 43
0.0
 10
89873.6572265625
 20
51175.2807617188
 10
89873.6572265625
 20
51127.6550292969
  0
LWPOLYLINE
  5
5ED
330
1E
100
AcDbEntity
  8
LAY0_0
  6
Continuous
 62
     0
100
AcDbPolyline
 90
        2
 70
     0
 43
0.0
 10
85789.03198242191
 20
49270.5200195313
 10
85789.03198242191
 20
49222.90649414059
  0
LWPOLYLINE
  5
5F1
330
1E
100
AcDbEntity
  8
LAY0_0
  6
Continuous
 62
     0
100
AcDbPolyline
 90
        2
 70
     0
 43
0.0
 10
50630.1879882813
 20
53413.37890625
 10
50630.1879882813
 20
53365.7592773438
  0
LWPOLYLINE
  5
5F5
330
1E
100
AcDbEntity
  8
LAY0_0
  6
Continuous
 62
     0
100
AcDbPolyline
 90
        2
 70
     0
 43
0.0
 10
47993.2708740234
 20
48937.1826171875
 10
47993.2708740234
 20
48889.5690917969
  0
LWPOLYLINE
  5
5F9
330
1E
100
AcDbEntity
  8
LAY0_0
  6
Continuous
 62
     0
100
AcDbPolyline
 90
        2
 70
     0
 43
0.0
 10
86099.2614746094
 20
53413.37890625
 10
86150.96435546879
 20
53413.37890625
  0
LWPOLYLINE
  5
5FD
330
1E
100
AcDbEntity
  8
LAY0_0
  6
Continuous
 62
     0
100
AcDbPolyline
 90
        5
 70
     0
 43
0.0
 10
45821.6979980469
 20
48984.8022460938
 10
45304.6569824219
 20
49318.1335449219
 10
45201.2481689453
 20
49222.90649414059
 10
45201.2481689453
 20
49127.6611328125
 10
45718.2922363281
 20
48699.0905761719
  0
LWPOLYLINE
  5
604
330
1E
100
AcDbEntity
  8
LAY0_0
  6
Continuous
 62
     0
100
AcDbPolyline
 90
        2
 70
     0
 43
0.0
 10
45925.10375976559
 20
48889.5690917969
 10
45925.10375976559
 20
48841.94335937499
  0
LWPOLYLINE
  5
610
330
1E
100
AcDbEntity
  8
LAY0_0
  6
Continuous
 62
     0
100
AcDbPolyline
 90
        2
 70
     0
 43
0.0
 10
85789.03198242191
 20
50889.5629882813
 10
85789.03198242191
 20
50841.9372558594
  0
LWPOLYLINE
  5
614
330
1E
100
AcDbEntity
  8
LAY0_0
  6
Continuous
 62
     0
100
AcDbPolyline
 90
        2
 70
     0
 43
0.0
 10
85685.62622070309
 20
49318.1335449219
 10
85737.3352050781
 20
49318.1335449219
  0
LWPOLYLINE
  5
618
330
1E
100
AcDbEntity
  8
LAY0_0
  6
Continuous
 62
     0
100
AcDbPolyline
 90
        2
 70
     0
 43
0.0
 10
63142.6025390625
 20
48651.4770507813
 10
63194.3054199219
 20
48651.4770507813
  0
LWPOLYLINE
  5
61C
330
1E
100
AcDbEntity
  8
LAY0_0
  6
Continuous
 62
     0
100
AcDbPolyline
 90
        2
 70
     0
 43
0.0
 10
87857.20214843751
 20
53413.37890625
 10
87908.90502929689
 20
53413.37890625
  0
LWPOLYLINE
  5
620
330
1E
100
AcDbEntity
  8
LAY0_0
  6
Continuous
 62
     0
100
AcDbPolyline
 90
        2
 70
     0
 43
0.0
 10
56016.2231445313
 20
52503.81469726559
 10
56067.919921875
 20
52503.81469726559
  0
LWPOLYLINE
  5
624
330
1E
100
AcDbEntity
  8
LAY0_0
  6
Continuous
 62
     0
100
AcDbPolyline
 90
        2
 70
     0
 43
0.0
 10
51095.5261230469
 20
60413.3728027344
 10
50681.89392089839
 20
60080.0537109375
  0
LWPOLYLINE
  5
628
330
1E
100
AcDbEntity
  8
LAY0_0
  6
Continuous
 62
     0
100
AcDbPolyline
 90
        2
 70
     0
 43
0.0
 10
84134.5031738281
 20
51794.3237304688
 10
84186.1938476563
 20
51794.3237304688
  0
LWPOLYLINE
  5
62C
330
1E
100
AcDbEntity
  8
LAY0_0
  6
Continuous
 62
     0
100
AcDbPolyline
 90
        2
 70
     0
 43
0.0
 10
86616.3024902344
 20
51794.3237304688
 10
86667.99316406249
 20
51794.3237304688
  0
LWPOLYLINE
  5
638
330
1E
100
AcDbEntity
  8
LAY0_0
  6
Continuous
 62
     0
100
AcDbPolyline
 90
        2
 70
     0
 43
0.0
 10
51664.27612304691
 20
58413.37890625
 10
51664.27612304691
 20
58365.75317382809
  0
LWPOLYLINE
  5
63C
330
1E
100
AcDbEntity
  8
LAY0_0
  6
Continuous
 62
     0
100
AcDbPolyline
 90
        2
 70
     0
 43
0.0
 10
84910.05859375
 20
52699.09667968749
 10
84910.05859375
 20
51841.9494628906
  0
LWPOLYLINE
  5
641
330
1E
100
AcDbEntity
  8
LAY0_0
  6
Continuous
 62
     0
100
AcDbPolyline
 90
        2
 70
     0
 43
0.0
 10
52233.0200195313
 20
59937.18872070309
 10
53649.35259880307
 20
59556.2316894531
  0
LWPOLYLINE
  5
645
330
1E
100
AcDbEntity
  8
LAY0_0
  6
Continuous
 62
     0
100
AcDbPolyline
 90
        2
 70
     0
 43
0.0
 10
51922.7905273438
 20
60603.857421875
 10
51922.7905273438
 20
60556.23168945309
  0
LWPOLYLINE
  5
64D
330
1E
100
AcDbEntity
  8
LAY0_0
  6
Continuous
 62
     0
100
AcDbPolyline
 90
        2
 70
     0
 43
0.0
 10
85789.03198242191
 20
51794.3237304688
 10
85789.03198242191
 20
51746.71020507809
  0
LWPOLYLINE
  5
651
330
1E
100
AcDbEntity
  8
LAY0_0
  6
Continuous
 62
     0
100
AcDbPolyline
 90
        3
 70
     0
 43
0.0
 10
54559.7106933594
 20
54270.5200195313
 10
54508.0017089844
 20
54222.900390625
 10
54456.29882812499
 20
54270.5200195313
  0
LWPOLYLINE
  5
65E
330
1E
100
AcDbEntity
  8
LAY0_0
  6
Continuous
 62
     0
100
AcDbPolyline
 90
        2
 70
     0
 43
0.0
 10
82479.96826171879
 20
51841.9494628906
 10
82531.67724609379
 20
51841.9494628906
  0
LWPOLYLINE
  5
662
330
1E
100
AcDbEntity
  8
LAY0_0
  6
Continuous
 62
     0
100
AcDbPolyline
 90
        2
 70
     0
 43
0.0
 10
84910.05859375
 20
51841.9494628906
 10
84910.05859375
 20
51794.3237304688
  0
LWPOLYLINE
  5
666
330
1E
100
AcDbEntity
  8
LAY0_0
  6
Continuous
 62
     0
100
AcDbPolyline
 90
        2
 70
     0
 43
0.0
 10
84134.5031738281
 20
51794.3237304688
 10
84134.5031738281
 20
51746.71020507809
  0
LWPOLYLINE
  5
66A
330
1E
100
AcDbEntity
  8
LAY0_0
  6
Continuous
 62
     0
100
AcDbPolyline
 90
        2
 70
     0
 43
0.0
 10
82479.96826171879
 20
51841.9494628906
 10
81807.8125
 20
51794.3237304688
  0
LWPOLYLINE
  5
672
330
1E
100
AcDbEntity
  8
LAY0_0
  6
Continuous
 62
     0
100
AcDbPolyline
 90
        2
 70
     0
 43
0.0
 10
86099.2614746094
 20
51794.3237304688
 10
86150.96435546879
 20
51794.3237304688
  0
LWPOLYLINE
  5
676
330
1E
100
AcDbEntity
  8
LAY0_0
  6
Continuous
 62
     0
100
AcDbPolyline
 90
        2
 70
     0
 43
0.0
 10
49544.4061279297
 20
54984.80834960941
 10
49544.4061279297
 20
54413.3728027344
  0
LWPOLYLINE
  5
67A
330
1E
100
AcDbEntity
  8
LAY0_0
  6
Continuous
 62
     0
100
AcDbPolyline
 90
        2
 70
     0
 43
0.0
 10
54559.7106933594
 20
54841.943359375
 10
54508.0017089844
 20
54794.3237304688
  0
LWPOLYLINE
  5
682
330
1E
100
AcDbEntity
  8
LAY0_0
  6
Continuous
 62
     0
100
AcDbPolyline
 90
        2
 70
     0
 43
0.0
 10
59213.0798339844
 20
51603.85131835941
 10
59213.0798339844
 20
51556.23168945309
  0
LWPOLYLINE
  5
686
330
1E
100
AcDbEntity
  8
LAY0_0
  6
Continuous
 62
     0
100
AcDbPolyline
 90
        2
 70
     0
 43
0.0
 10
84858.3618164063
 20
51794.3237304688
 10
84910.05859375
 20
51794.3237304688
  0
LWPOLYLINE
  5
68A
330
1E
100
AcDbEntity
  8
LAY0_0
  6
Continuous
 62
     0
100
AcDbPolyline
 90
        2
 70
     0
 43
0.0
 10
53008.5815429688
 20
55270.5200195313
 10
53008.5815429688
 20
55222.8942871094
  0
LWPOLYLINE
  5
68E
330
1E
100
AcDbEntity
  8
LAY0_0
  6
Continuous
 62
     0
100
AcDbPolyline
 90
        2
 70
     0
 43
0.0
 10
85737.3352050781
 20
50699.09057617191
 10
85789.03198242191
 20
50699.09057617191
  0
LWPOLYLINE
  5
692
330
1E
100
AcDbEntity
  8
LAY0_0
  6
Continuous
 62
     0
100
AcDbPolyline
 90
        2
 70
     0
 43
0.0
 10
85789.03198242191
 20
51032.4157714844
 10
85789.03198242191
 20
50937.1887207031
  0
LWPOLYLINE
  5
696
330
1E
100
AcDbEntity
  8
LAY0_0
  6
Continuous
 62
     0
100
AcDbPolyline
 90
        2
 70
     0
 43
0.0
 10
90907.7514648438
 20
51127.6550292969
 10
90959.4543457031
 20
51127.6550292969
  0
LWPOLYLINE
  5
69A
330
1E
100
AcDbEntity
  8
LAY0_0
  6
Continuous
 62
     0
100
AcDbPolyline
 90
        2
 70
     0
 43
0.0
 10
52233.0200195313
 20
59937.18872070309
 10
52181.3171386719
 20
59746.71020507809
  0
LWPOLYLINE
  5
69E
330
1E
100
AcDbEntity
  8
LAY0_0
  6
Continuous
 62
     0
100
AcDbPolyline
 90
        3
 70
     0
 43
0.0
 10
51664.27612304691
 20
60222.8942871094
 10
51566.0339355469
 20
60208.6181640625
 10
50888.7084960938
 20
59937.18872070309
  0
LWPOLYLINE
  5
6A3
330
1E
100
AcDbEntity
  8
LAY0_0
  6
Continuous
 62
     0
100
AcDbPolyline
 90
        2
 70
     0
 43
0.0
 10
56067.919921875
 20
52741.9128417969
 10
56067.919921875
 20
52551.4282226563
  0
LWPOLYLINE
  5
6A7
330
1E
100
AcDbEntity
  8
LAY0_0
  6
Continuous
 62
     0
100
AcDbPolyline
 90
        2
 70
     0
 43
0.0
 10
90856.0424804688
 20
51127.6550292969
 10
90907.7514648438
 20
51127.6550292969
  0
LWPOLYLINE
  5
6AB
330
1E
100
AcDbEntity
  8
LAY0_0
  6
Continuous
 62
     0
100
AcDbPolyline
 90
        2
 70
     0
 43
0.0
 10
57661.962890625
 20
53508.6181640625
 10
57661.962890625
 20
53460.9985351563
  0
LWPOLYLINE
  5
6AF
330
1E
100
AcDbEntity
  8
LAY0_0
  6
Continuous
 62
     0
100
AcDbPolyline
 90
        2
 70
     0
 43
0.0
 10
54663.1164550781
 20
50603.8513183594
 10
54714.8193359375
 20
50603.8513183594
  0
LWPOLYLINE
  5
6B3
330
1E
100
AcDbEntity
  8
LAY0_0
  6
Continuous
 62
     0
100
AcDbPolyline
 90
        2
 70
     0
 43
0.0
 10
83100.4150390625
 20
51794.3237304688
 10
83152.11181640629
 20
51794.3237304688
  0
LWPOLYLINE
  5
6B7
330
1E
100
AcDbEntity
  8
LAY0_0
  6
Continuous
 62
     0
100
AcDbPolyline
 90
        2
 70
     0
 43
0.0
 10
85840.73486328129
 20
50699.09057617191
 10
86667.99316406249
 20
50699.09057617191
  0
LWPOLYLINE
  5
6BB
330
1E
100
AcDbEntity
  8
LAY0_0
  6
Continuous
 62
     0
100
AcDbPolyline
 90
        2
 70
     0
 43
0.0
 10
56067.919921875
 20
52551.4282226563
 10
56067.919921875
 20
52503.81469726559
  0
LWPOLYLINE
  5
6BF
330
1E
100
AcDbEntity
  8
LAY0_0
  6
Continuous
 62
     0
100
AcDbPolyline
 90
        2
 70
     0
 43
0.0
 10
50681.89392089839
 20
60080.0537109375
 10
50888.7084960938
 20
59937.18872070309
  0
LWPOLYLINE
  5
6C7
330
1E
100
AcDbEntity
  8
LAY0_0
  6
Continuous
 62
     0
100
AcDbPolyline
 90
        2
 70
     0
 43
0.0
 10
90080.47485351561
 20
55413.3728027344
 10
90132.18994140631
 20
55413.3728027344
  0
LWPOLYLINE
  5
6CB
330
1E
100
AcDbEntity
  8
LAY0_0
  6
Continuous
 62
     0
100
AcDbPolyline
 90
        2
 70
     0
 43
0.0
 10
51819.384765625
 20
60127.6550292969
 10
52233.0200195313
 20
59937.18872070309
  0
LWPOLYLINE
  5
6CF
330
1E
100
AcDbEntity
  8
LAY0_0
  6
Continuous
 62
     0
100
AcDbPolyline
 90
        2
 70
     0
 43
0.0
 10
50526.7822265625
 20
59746.71020507809
 10
50578.4851074219
 20
59651.46484375
  0
LWPOLYLINE
  5
6D7
330
1E
100
AcDbEntity
  8
LAY0_0
  6
Continuous
 62
     0
100
AcDbPolyline
 90
        2
 70
     0
 43
0.0
 10
52691.2902832031
 20
50226.15356445309
 10
52691.2902832031
 20
50178.5400390625
  0
LWPOLYLINE
  5
6E0
330
1E
100
AcDbEntity
  8
LAY0_0
  6
Continuous
 62
     0
100
AcDbPolyline
 90
        2
 70
     0
 43
0.0
 10
51922.7905273438
 20
60556.23168945309
 10
53060.2905273438
 20
60318.1396484375
  0
LWPOLYLINE
  5
6E4
330
1E
100
AcDbEntity
  8
LAY0_0
  6
Continuous
 62
     0
100
AcDbPolyline
 90
        4
 70
     0
 43
0.0
 10
50681.89392089839
 20
60080.0537109375
 10
50625.0183105469
 20
60041.9555664063
 10
50475.07934570309
 20
59937.18872070309
 10
50526.7822265625
 20
59746.71020507809
  0
LWPOLYLINE
  5
6EA
330
1E
100
AcDbEntity
  8
LAY0_0
  6
Continuous
 62
     0
100
AcDbPolyline
 90
        2
 70
     0
 43
0.0
 10
51922.7905273438
 20
60651.47094726559
 10
51922.7905273438
 20
60603.857421875
  0
LWPOLYLINE
  5
6EE
330
1E
100
AcDbEntity
  8
LAY0_0
  6
Continuous
 62
     0
100
AcDbPolyline
 90
        2
 70
     0
 43
0.0
 10
51715.97290039059
 20
60222.8942871094
 10
51819.384765625
 20
60127.6550292969
  0
LWPOLYLINE
  5
6F2
330
1E
100
AcDbEntity
  8
LAY0_0
  6
Continuous
 62
     0
100
AcDbPolyline
 90
        2
 70
     0
 43
0.0
 10
50888.7084960938
 20
59937.18872070309
 10
50837.0056152344
 20
59699.0905761719
  0
LWPOLYLINE
  5
6FA
330
1E
100
AcDbEntity
  8
LAY0_0
  6
Continuous
 62
     0
100
AcDbPolyline
 90
        2
 70
     0
 43
0.0
 10
90856.0424804688
 20
53413.37890625
 10
90907.7514648438
 20
53413.37890625
  0
LWPOLYLINE
  5
6FE
330
1E
100
AcDbEntity
  8
LAY0_0
  6
Continuous
 62
     0
100
AcDbPolyline
 90
        2
 70
     0
 43
0.0
 10
53577.3315429688
 20
55746.7102050781
 10
53629.0405273438
 20
55746.7102050781
  0
LWPOLYLINE
  5
702
330
1E
100
AcDbEntity
  8
LAY0_0
  6
Continuous
 62
     0
100
AcDbPolyline
 90
        2
 70
     0
 43
0.0
 10
91217.9748535156
 20
51175.2807617188
 10
91217.9748535156
 20
51127.6550292969
  0
LWPOLYLINE
  5
706
330
1E
100
AcDbEntity
  8
LAY0_0
  6
Continuous
 62
     0
100
AcDbPolyline
 90
        2
 70
     0
 43
0.0
 10
91166.2719726563
 20
51127.6550292969
 10
91217.9748535156
 20
51127.6550292969
  0
LWPOLYLINE
  5
70A
330
1E
100
AcDbEntity
  8
LAY0_0
  6
CENTER
 62
     0
100
AcDbPolyline
 90
        2
 70
     0
 43
0.0
 10
85789.03198242191
 20
50841.9372558594
 10
85789.03198242191
 20
50746.7163085938
  0
LWPOLYLINE
  5
712
330
1E
100
AcDbEntity
  8
LAY0_0
  6
Continuous
 62
     0
100
AcDbPolyline
 90
        2
 70
     0
 43
0.0
 10
90132.18994140631
 20
55460.99243164059
 10
90132.18994140631
 20
55413.3728027344
  0
LWPOLYLINE
  5
716
330
1E
100
AcDbEntity
  8
LAY0_0
  6
Continuous
 62
     0
100
AcDbPolyline
 90
        2
 70
     0
 43
0.0
 10
50423.3764648438
 20
56365.7592773438
 10
50423.3764648438
 20
56175.2746582031
  0
LWPOLYLINE
  5
71A
330
1E
100
AcDbEntity
  8
LAY0_0
  6
Continuous
 62
     0
100
AcDbPolyline
 90
        2
 70
     0
 43
0.0
 10
53990.9606933594
 20
54984.80834960941
 10
54301.1840820313
 20
54984.80834960941
  0
LWPOLYLINE
  5
71E
330
1E
100
AcDbEntity
  8
LAY0_0
  6
Continuous
 62
     0
100
AcDbPolyline
 90
        2
 70
     0
 43
0.0
 10
77051.01928710941
 20
54222.900390625
 10
77051.01928710941
 20
54175.2746582031
  0
LWPOLYLINE
  5
726
330
1E
100
AcDbEntity
  8
LAY0_0
  6
Continuous
 62
     0
100
AcDbPolyline
 90
        2
 70
     0
 43
0.0
 10
51974.5056152344
 20
57277.9932908719
 10
51974.5056152344
 20
57270.5200195313
  0
LWPOLYLINE
  5
72E
330
1E
100
AcDbEntity
  8
LAY0_0
  6
Continuous
 62
     0
100
AcDbPolyline
 90
        2
 70
     0
 43
0.0
 10
83152.11181640629
 20
51794.3237304688
 10
83203.82080078129
 20
51794.3237304688
  0
LWPOLYLINE
  5
732
330
1E
100
AcDbEntity
  8
LAY0_0
  6
Continuous
 62
     0
100
AcDbPolyline
 90
        2
 70
     0
 43
0.0
 10
54559.7106933594
 20
54270.5200195313
 10
54714.8193359375
 20
54127.6672363281
  0
LWPOLYLINE
  5
736
330
1E
100
AcDbEntity
  8
LAY0_0
  6
Continuous
 62
     0
100
AcDbPolyline
 90
        2
 70
     0
 43
0.0
 10
84961.767578125
 20
51794.3237304688
 10
85272.0031738281
 20
51794.3237304688
  0
LWPOLYLINE
  5
73E
330
1E
100
AcDbEntity
  8
LAY0_0
  6
Continuous
 62
     0
100
AcDbPolyline
 90
        2
 70
     0
 43
0.0
 10
47941.57409667969
 20
48889.5690917969
 10
47993.2708740234
 20
48889.5690917969
  0
LWPOLYLINE
  5
742
330
1E
100
AcDbEntity
  8
LAY0_0
  6
Continuous
 62
     0
100
AcDbPolyline
 90
        2
 70
     0
 43
0.0
 10
54559.7106933594
 20
54841.943359375
 10
54611.40747070309
 20
54841.943359375
  0
LWPOLYLINE
  5
746
330
1E
100
AcDbEntity
  8
LAY0_0
  6
Continuous
 62
     0
100
AcDbPolyline
 90
        2
 70
     0
 43
0.0
 10
50837.0056152344
 20
59699.0905761719
 10
50733.6029052734
 20
59603.857421875
  0
LWPOLYLINE
  5
74E
330
1E
100
AcDbEntity
  8
LAY0_0
  6
Continuous
 62
     0
100
AcDbPolyline
 90
        2
 70
     0
 43
0.0
 10
54714.8193359375
 20
50603.8513183594
 10
54714.8193359375
 20
50556.2377929688
  0
LWPOLYLINE
  5
752
330
1E
100
AcDbEntity
  8
LAY0_0
  6
Continuous
 62
     0
100
AcDbPolyline
 90
        2
 70
     0
 43
0.0
 10
54818.2250976563
 20
55032.4279785156
 10
54663.1164550781
 20
54984.80834960941
  0
LWPOLYLINE
  5
756
330
1E
100
AcDbEntity
  8
LAY0_0
  6
Continuous
 62
     0
100
AcDbPolyline
 90
        2
 70
     0
 43
0.0
 10
53784.1430664063
 20
55080.0415039063
 10
53835.8520507813
 20
55080.0415039063
  0
LWPOLYLINE
  5
75A
330
1E
100
AcDbEntity
  8
LAY0_0
  6
Continuous
 62
     0
100
AcDbPolyline
 90
        2
 70
     0
 43
0.0
 10
54611.40747070309
 20
54889.5690917969
 10
54611.40747070309
 20
54841.943359375
  0
LWPOLYLINE
  5
75E
330
1E
100
AcDbEntity
  8
LAY0_0
  6
Continuous
 62
     0
100
AcDbPolyline
 90
        2
 70
     0
 43
0.0
 10
56669.8425292969
 20
50603.8513183594
 10
56721.5393066406
 20
50603.8513183594
  0
LWPOLYLINE
  5
762
330
1E
100
AcDbEntity
  8
LAY0_0
  6
Continuous
 62
     0
100
AcDbPolyline
 90
        2
 70
     0
 43
0.0
 10
51974.5056152344
 20
57222.900390625
 10
52026.2084960938
 20
57032.4340820313
  0
LWPOLYLINE
  5
766
330
1E
100
AcDbEntity
  8
LAY0_0
  6
Continuous
 62
     0
100
AcDbPolyline
 90
        2
 70
     0
 43
0.0
 10
53008.5815429688
 20
55080.0415039063
 10
53008.5815429688
 20
55032.4279785156
  0
LWPOLYLINE
  5
76A
330
1E
100
AcDbEntity
  8
LAY0_0
  6
Continuous
 62
     0
100
AcDbPolyline
 90
        2
 70
     0
 43
0.0
 10
52691.2902832031
 20
50416.63208007809
 10
52691.2902832031
 20
50226.15356445309
  0
LWPOLYLINE
  5
772
330
1E
100
AcDbEntity
  8
LAY0_0
  6
Continuous
 62
     0
100
AcDbPolyline
 90
        2
 70
     0
 43
0.0
 10
89563.43994140631
 20
55413.3728027344
 10
89615.14892578131
 20
55413.3728027344
  0
LWPOLYLINE
  5
776
330
1E
100
AcDbEntity
  8
LAY0_0
  6
Continuous
 62
     0
100
AcDbPolyline
 90
        2
 70
     0
 43
0.0
 10
89997.76578425247
 20
56222.900390625
 10
90339.00146484381
 20
56222.900390625
  0
LWPOLYLINE
  5
77E
330
1E
100
AcDbEntity
  8
LAY0_0
  6
Continuous
 62
     0
100
AcDbPolyline
 90
        2
 70
     0
 43
0.0
 10
84910.05859375
 20
52996.13637498034
 10
84910.05859375
 20
52889.5629882813
  0
LWPOLYLINE
  5
783
330
1E
100
AcDbEntity
  8
LAY0_0
  6
Continuous
 62
     0
100
AcDbPolyline
 90
        2
 70
     0
 43
0.0
 10
52691.2902832031
 20
50464.2456054688
 10
52691.2902832031
 20
50416.63208007809
  0
LWPOLYLINE
  5
787
330
1E
100
AcDbEntity
  8
LAY0_0
  6
Continuous
 62
     0
100
AcDbPolyline
 90
        2
 70
     0
 43
0.0
 10
52639.5874023438
 20
50178.5400390625
 10
52691.2902832031
 20
50178.5400390625
  0
LWPOLYLINE
  5
78B
330
1E
100
AcDbEntity
  8
LAY0_0
  6
Continuous
 62
     0
100
AcDbPolyline
 90
        2
 70
     0
 43
0.0
 10
47217.7154541016
 20
48889.5690917969
 10
47269.41833496089
 20
48889.5690917969
  0
LWPOLYLINE
  5
793
330
1E
100
AcDbEntity
  8
LAY0_0
  6
Continuous
 62
     0
100
AcDbPolyline
 90
        2
 70
     0
 43
0.0
 10
51405.7556152344
 20
60699.0966796875
 10
51405.7556152344
 20
60651.47094726559
  0
LWPOLYLINE
  5
797
330
1E
100
AcDbEntity
  8
LAY0_0
  6
Continuous
 62
     0
100
AcDbPolyline
 90
        2
 70
     0
 43
0.0
 10
51922.7905273438
 20
60651.47094726559
 10
51974.5056152344
 20
60651.47094726559
  0
LWPOLYLINE
  5
7A3
330
1E
100
AcDbEntity
  8
LAY0_0
  6
Continuous
 62
     0
100
AcDbPolyline
 90
        2
 70
     0
 43
0.0
 10
90907.7514648438
 20
53413.37890625
 10
90959.4543457031
 20
53413.37890625
  0
LWPOLYLINE
  5
7A7
330
1E
100
AcDbEntity
  8
LAY0_0
  6
Continuous
 62
     0
100
AcDbPolyline
 90
        2
 70
     0
 43
0.0
 10
51405.7556152344
 20
60699.0966796875
 10
51457.45849609379
 20
60699.0966796875
  0
LWPOLYLINE
  5
7AB
330
1E
100
AcDbEntity
  8
LAY0_0
  6
Continuous
 62
     0
100
AcDbPolyline
 90
        2
 70
     0
 43
0.0
 10
54301.1840820313
 20
54984.80834960941
 10
54352.8930664063
 20
54984.80834960941
  0
LWPOLYLINE
  5
7B3
330
1E
100
AcDbEntity
  8
LAY0_0
  6
Continuous
 62
     0
100
AcDbPolyline
 90
        2
 70
     0
 43
0.0
 10
54663.1164550781
 20
54984.80834960941
 10
54611.40747070309
 20
54889.5690917969
  0
LWPOLYLINE
  5
7B7
330
1E
100
AcDbEntity
  8
LAY0_0
  6
Continuous
 62
     0
100
AcDbPolyline
 90
        2
 70
     0
 43
0.0
 10
90339.00146484381
 20
56222.900390625
 10
90390.70434570311
 20
56222.900390625
  0
LWPOLYLINE
  5
7BB
330
1E
100
AcDbEntity
  8
LAY0_0
  6
Continuous
 62
     0
100
AcDbPolyline
 90
        2
 70
     0
 43
0.0
 10
53008.5815429688
 20
55270.5200195313
 10
53060.2905273438
 20
55270.5200195313
  0
LWPOLYLINE
  5
7BF
330
1E
100
AcDbEntity
  8
LAY0_0
  6
Continuous
 62
     0
100
AcDbPolyline
 90
        2
 70
     0
 43
0.0
 10
49544.4061279297
 20
55032.4279785156
 10
49544.4061279297
 20
54984.80834960941
  0
ARC
  5
7CB
330
1E
100
AcDbEntity
  8
LAY0_0
  6
Continuous
 62
     0
100
AcDbCircle
 10
51539.1357421875
 20
56927.0874023438
 30
0.0
 40
77.62768268585209
100
AcDbArc
 50
333.3291445912469
 51
172.8092231209105
  0
ARC
  5
7CF
330
1E
100
AcDbEntity
  8
LAY0_0
  6
Continuous
 62
     0
100
AcDbCircle
 10
50810.89818084445
 20
48902.42939106017
 30
0.0
 40
3677.252765453845
100
AcDbArc
 50
231.8622341837768
 51
258.7995324344979
  0
ARC
  5
7D0
330
1E
100
AcDbEntity
  8
LAY0_0
  6
Continuous
 62
     0
100
AcDbCircle
 10
46761.44002265961
 20
44261.11087225895
 30
0.0
 40
2494.484255377779
100
AcDbArc
 50
44.52089138895789
 51
91.42110417510201
  0
ARC
  5
7D1
330
1E
100
AcDbEntity
  8
LAY0_0
  6
Continuous
 62
     0
100
AcDbCircle
 10
47538.0004882813
 20
45039.87426757809
 30
0.0
 40
140.594983100891
100
AcDbArc
 50
270.0000006832449
 51
0.0
  0
ARC
  5
7D2
330
1E
100
AcDbEntity
  8
LAY0_0
  6
Continuous
 62
     0
100
AcDbCircle
 10
81483.9965820313
 20
57197.3266601563
 30
0.0
 40
75.0117182731628
100
AcDbArc
 50
92.7321601347533
 51
253.7883827636799
  0
ARC
  5
7D3
330
1E
100
AcDbEntity
  8
LAY0_0
  6
Continuous
 62
     0
100
AcDbCircle
 10
81827.19726562499
 20
57159.9792480469
 30
0.0
 40
76.6602396965027
100
AcDbArc
 50
278.4343007609709
 51
68.0864675337053
  0
CIRCLE
  5
7D6
330
1E
100
AcDbEntity
  8
LAY0_0
  6
Continuous
 62
     0
100
AcDbCircle
 10
85789.03198242191
 20
33691.3452148438
 30
0.0
 40
1058.749771118159
  0
ARC
  5
7D7
330
1E
100
AcDbEntity
  8
LAY0_0
  6
Continuous
 62
     0
100
AcDbCircle
 10
65800.35400390629
 20
33568.06030273439
 30
0.0
 40
25806.3873291016
100
AcDbArc
 50
343.69940839384
 51
16.9387359529428
  0
ARC
  5
7D8
330
1E
100
AcDbEntity
  8
LAY0_0
  6
Continuous
 62
     0
100
AcDbCircle
 10
52116.02783203129
 20
56841.2963867188
 30
0.0
 40
77.7278661727905
100
AcDbArc
 50
171.1257779318618
 51
249.8005629531767
  0
ARC
  5
7D9
330
1E
100
AcDbEntity
  8
LAY0_0
  6
Continuous
 62
     0
100
AcDbCircle
 10
51730.1391601563
 20
56841.064453125
 30
0.0
 40
77.7278661727905
100
AcDbArc
 50
290.36847173168
 51
343.4086609012509
  0
CIRCLE
  5
7DA
330
1E
100
AcDbEntity
  8
LAY0_0
  6
Continuous
 62
     0
100
AcDbCircle
 10
82718.40820312499
 20
53774.9206542969
 30
0.0
 40
80.03590703010559
  0
ARC
  5
7DB
330
1E
100
AcDbEntity
  8
LAY0_0
  6
Continuous
 62
     0
100
AcDbCircle
 10
50742.58422851559
 20
58227.86254882809
 30
0.0
 40
75.79603195190429
100
AcDbArc
 50
131.525223563649
 51
177.79527458639
  0
CIRCLE
  5
7DC
330
1E
100
AcDbEntity
  8
LAY0_0
  6
Continuous
 62
     0
100
AcDbCircle
 10
52823.59619140629
 20
55360.89477539059
 30
0.0
 40
54.82928752899169
  0
CIRCLE
  5
7DD
330
1E
100
AcDbEntity
  8
LAY0_0
  6
Continuous
 62
     0
100
AcDbCircle
 10
68808.0810546875
 20
58652.0690917969
 30
0.0
 40
99.6596336364746
  0
CIRCLE
  5
7DE
330
1E
100
AcDbEntity
  8
LAY0_0
  6
Continuous
 62
     0
100
AcDbCircle
 10
62954.04052734379
 20
59327.32543945309
 30
0.0
 40
99.6596336364746
  0
ARC
  5
7DF
330
1E
100
AcDbEntity
  8
LAY0_0
  6
Continuous
 62
     0
100
AcDbCircle
 10
50667.5872802734
 20
58238.4948730469
 30
0.0
 40
116.405951976776
100
AcDbArc
 50
266.4528648812039
 51
348.520647683656
  0
ARC
  5
7E0
330
1E
100
AcDbEntity
  8
LAY0_0
  6
Continuous
 62
     0
100
AcDbCircle
 10
56302.53487223097
 20
33826.43071114896
 30
0.0
 40
2747.26791381836
100
AcDbArc
 50
282.2772110748299
 51
314.0801323255252
  0
ARC
  5
7E1
330
1E
100
AcDbEntity
  8
LAY0_0
  6
Continuous
 62
     0
100
AcDbCircle
 10
56370.81777073296
 20
33740.64123811453
 30
0.0
 40
2552.71968841553
100
AcDbArc
 50
41.27294201019732
 51
78.34029585537608
  0
ARC
  5
7E3
330
1E
100
AcDbEntity
  8
LAY0_0
  6
Continuous
 62
     0
100
AcDbCircle
 10
55767.08984375
 20
33691.3452148438
 30
0.0
 40
3060.37464141846
100
AcDbArc
 50
323.0777127787746
 51
34.49486916843509
  0
CIRCLE
  5
7E4
330
1E
100
AcDbEntity
  8
LAY0_0
  6
Continuous
 62
     0
100
AcDbCircle
 10
85789.03198242191
 20
33691.3452148438
 30
0.0
 40
5480.64613342285
  0
ARC
  5
7E5
330
1E
100
AcDbEntity
  8
LAY0_0
  6
Continuous
 62
     0
100
AcDbCircle
 10
55306.77957483262
 20
33685.63739309748
 30
0.0
 40
3781.007003784179
100
AcDbArc
 50
329.9195712778153
 51
6.764467288618755
  0
ARC
  5
7E6
330
1E
100
AcDbEntity
  8
LAY0_0
  6
Continuous
 62
     0
100
AcDbCircle
 10
55223.87268443049
 20
33688.00256292296
 30
0.0
 40
3863.077163696289
100
AcDbArc
 50
6.584794190629461
 51
29.80707769760042
  0
ARC
  5
7EB
330
1E
100
AcDbEntity
  8
LAY0_0
  6
Continuous
 62
     0
100
AcDbCircle
 10
56804.10950083679
 20
33949.09265081366
 30
0.0
 40
2427.34966278076
100
AcDbArc
 50
43.12031768949882
 51
85.34770111359399
  0
ARC
  5
7ED
330
1E
100
AcDbEntity
  8
LAY0_0
  6
Continuous
 62
     0
100
AcDbCircle
 10
56583.52109896576
 20
33853.79006248228
 30
0.0
 40
2870.0569152832
100
AcDbArc
 50
278.3637993104716
 51
314.0372141357664
  0
ARC
  5
7EE
330
1E
100
AcDbEntity
  8
LAY0_0
  6
Continuous
 62
     0
100
AcDbCircle
 10
51657.0983886719
 20
56835.55297851559
 30
0.0
 40
219.7019577026369
100
AcDbArc
 50
152.5575281866016
 51
244.4435581476466
  0
ARC
  5
7EF
330
1E
100
AcDbEntity
  8
LAY0_0
  6
Continuous
 62
     0
100
AcDbCircle
 10
82479.96826171879
 20
49603.8513183594
 30
0.0
 40
568.745994567871
100
AcDbArc
 50
0.0
 51
180.0000050089559
  0
CIRCLE
  5
7F0
330
1E
100
AcDbEntity
  8
LAY0_0
  6
Continuous
 62
     0
100
AcDbCircle
 10
50689.5202636719
 20
59848.5473632813
 30
0.0
 40
138.979065418243
  0
CIRCLE
  5
7F1
330
1E
100
AcDbEntity
  8
LAY0_0
  6
Continuous
 62
     0
100
AcDbCircle
 10
49541.845703125
 20
55298.7243652344
 30
0.0
 40
264.9375438690189
  0
CIRCLE
  5
7F2
330
1E
100
AcDbEntity
  8
LAY0_0
  6
Continuous
 62
     0
100
AcDbCircle
 10
49541.845703125
 20
58890.2221679688
 30
0.0
 40
264.9375438690189
  0
ARC
  5
7F3
330
1E
100
AcDbEntity
  8
LAY0_0
  6
Continuous
 62
     0
100
AcDbCircle
 10
59228.3813476563
 20
49689.0686035156
 30
0.0
 40
507.5824260711669
100
AcDbArc
 50
180.0000050089559
 51
0.0
  0
CIRCLE
  5
7F4
330
1E
100
AcDbEntity
  8
LAY0_0
  6
Continuous
 62
     0
100
AcDbCircle
 10
51922.7905273438
 20
58083.28247070309
 30
0.0
 40
175.4890799522399
  0
ARC
  5
7F5
330
1E
100
AcDbEntity
  8
LAY0_0
  6
Continuous
 62
     0
100
AcDbCircle
 10
52179.86043463544
 20
56838.01694798868
 30
0.0
 40
78.16168755561021
100
AcDbArc
 50
294.2640645571385
 51
37.87865866998629
  0
CIRCLE
  5
7F6
330
1E
100
AcDbEntity
  8
LAY0_0
  6
Continuous
 62
     0
100
AcDbCircle
 10
52670.9716796875
 20
60747.9736328125
 30
0.0
 40
209.9097967147829
  0
CIRCLE
  5
7F7
330
1E
100
AcDbEntity
  8
LAY0_0
  6
Continuous
 62
     0
100
AcDbCircle
 10
52823.59619140629
 20
56271.95434570309
 30
0.0
 40
54.82928752899169
  0
ARC
  5
7F9
330
1E
100
AcDbEntity
  8
LAY0_0
  6
Continuous
 62
     0
100
AcDbCircle
 10
59228.3813476563
 20
49689.0686035156
 30
0.0
 40
507.58318901062
100
AcDbArc
 50
0.0
 51
180.0000050089559
  0
CIRCLE
  5
7FA
330
1E
100
AcDbEntity
  8
LAY0_0
  6
Continuous
 62
     0
100
AcDbCircle
 10
77286.48071289059
 20
57670.1599121094
 30
0.0
 40
99.6596336364746
  0
CIRCLE
  5
7FB
330
1E
100
AcDbEntity
  8
LAY0_0
  6
Continuous
 62
     0
100
AcDbCircle
 10
77565.53955078129
 20
57639.50195312499
 30
0.0
 40
99.6596336364746
  0
CIRCLE
  5
7FC
330
1E
100
AcDbEntity
  8
LAY0_0
  6
Continuous
 62
     0
100
AcDbCircle
 10
68529.01611328129
 20
58682.7270507813
 30
0.0
 40
99.6596336364746
  0
ARC
  5
7FD
330
1E
100
AcDbEntity
  8
LAY0_0
  6
CENTER
 62
     0
 48
100.0
100
AcDbCircle
 10
85709.2529296875
 20
44441.9555664063
 30
0.0
 40
6225.81329345703
100
AcDbArc
 50
34.4019553020617
 51
50.7232831351704
  0
CIRCLE
  5
7FE
330
1E
100
AcDbEntity
  8
LAY0_0
  6
Continuous
 62
     0
100
AcDbCircle
 10
63233.09936523441
 20
59296.6735839844
 30
0.0
 40
99.6596336364746
  0
ARC
  5
7FF
330
1E
100
AcDbEntity
  8
LAY0_0
  6
Continuous
 62
     0
100
AcDbCircle
 10
50764.4165039063
 20
58225.244140625
 30
0.0
 40
19.3538919091225
100
AcDbArc
 50
333.007293663319
 51
151.5673345131619
  0
ARC
  5
800
330
1E
100
AcDbEntity
  8
LAY0_0
  6
Continuous
 62
     0
100
AcDbCircle
 10
50681.1950683594
 20
58216.0217285156
 30
0.0
 40
94.12828683853149
100
AcDbArc
 50
132.318754941421
 51
257.2273556900249
  0
ARC
  5
801
330
1E
100
AcDbEntity
  8
LAY0_0
  6
Continuous
 62
     0
100
AcDbCircle
 10
52204.55464445863
 20
56839.77835027198
 30
0.0
 40
219.7019577026369
100
AcDbArc
 50
293.4352312812078
 51
28.44178912988731
  0
ARC
  5
802
330
1E
100
AcDbEntity
  8
LAY0_0
  6
CENTER
 62
     0
 48
100.0
100
AcDbCircle
 10
85709.2529296875
 20
44441.9555664063
 30
0.0
 40
5882.341766357421
100
AcDbArc
 50
34.5983129954158
 51
50.7232831351704
  0
CIRCLE
  5
803
330
1E
100
AcDbEntity
  8
LAY0_0
  6
Continuous
 62
     0
100
AcDbCircle
 10
51925.244140625
 20
59824.3835449219
 30
0.0
 40
216.6854619979859
  0
ARC
  5
804
330
1E
100
AcDbEntity
  8
LAY0_0
  6
Continuous
 62
     0
100
AcDbCircle
 10
51657.38863027125
 20
56835.91516262959
 30
0.0
 40
74.58256869086366
100
AcDbArc
 50
130.9534338836243
 51
244.3590466650793
  0
CIRCLE
  5
805
330
1E
100
AcDbEntity
  8
LAY0_0
  6
Continuous
 62
     0
100
AcDbCircle
 10
74419.6533203125
 20
58001.6296386719
 30
0.0
 40
99.6596336364746
  0
CIRCLE
  5
806
330
1E
100
AcDbEntity
  8
LAY0_0
  6
Continuous
 62
     0
100
AcDbCircle
 10
74698.6999511719
 20
57970.97167968749
 30
0.0
 40
99.6596336364746
  0
ARC
  5
807
330
1E
100
AcDbEntity
  8
LAY0_0
  6
Continuous
 62
     0
100
AcDbCircle
 10
50706.787109375
 20
58239.1967773438
 30
0.0
 40
41.0389304161072
100
AcDbArc
 50
193.2231146383179
 51
351.6899920623249
  0
ARC
  5
808
330
1E
100
AcDbEntity
  8
LAY0_0
  6
Continuous
 62
     0
100
AcDbCircle
 10
51692.62695312499
 20
57177.07519531249
 30
0.0
 40
413.9437675476069
100
AcDbArc
 50
260.61357223522
 51
278.9732300072409
  0
ARC
  5
809
330
1E
100
AcDbEntity
  8
LAY0_0
  6
Continuous
 62
     0
100
AcDbCircle
 10
52154.1381835938
 20
57042.1264648438
 30
0.0
 40
281.375956535339
100
AcDbArc
 50
256.65315534688
 51
281.8628198348383
  0
ARC
  5
80A
330
1E
100
AcDbEntity
  8
LAY0_0
  6
Continuous
 62
     0
100
AcDbCircle
 10
51922.7905273438
 20
60345.7580566406
 30
0.0
 40
3725.88996887207
100
AcDbArc
 50
264.4478765107249
 51
275.6859028089242
  0
ARC
  5
80B
330
1E
100
AcDbEntity
  8
LAY0_0
  6
Continuous
 62
     0
100
AcDbCircle
 10
89654.9438476563
 20
26713.330078125
 30
0.0
 40
993.5562133789058
100
AcDbArc
 50
276.635993914776
 51
336.980769873352
  0
ARC
  5
80C
330
1E
100
AcDbEntity
  8
LAY0_0
  6
Continuous
 62
     0
100
AcDbCircle
 10
89455.26733398439
 20
40651.513671875
 30
0.0
 40
1119.93408203125
100
AcDbArc
 50
22.86768849216149
 51
73.69925124367999
  0
TEXT
  5
80D
330
1E
100
AcDbEntity
  8
LAY0_0
 62
     0
100
AcDbText
 10
92587.2680664063
 20
46845.2209472656
 30
0.0
 40
800.0
  1
3.0m
100
AcDbText
  0
TEXT
  5
80E
330
1E
100
AcDbEntity
  8
LAY0_0
 62
     0
100
AcDbText
 10
92664.74609375
 20
33301.7547607422
 30
0.0
 40
800.0
  1
16.0m
100
AcDbText
  0
TEXT
  5
80F
330
1E
100
AcDbEntity
  8
LAY0_0
 62
     0
100
AcDbText
 10
62802.27291783108
 20
22136.96136474609
 30
0.0
 40
800.0
  1
船倉寸法　14,400×18,800
100
AcDbText
  0
TEXT
  5
810
330
1E
100
AcDbEntity
  8
LAY0_0
 62
     0
100
AcDbText
 10
67747.71728515629
 20
43160.2478027344
 30
0.0
 40
800.0
  1
45.5m
100
AcDbText
  0
TEXT
  5
811
330
1E
100
AcDbEntity
  8
LAY0_0
 62
     0
100
AcDbText
 10
67962.57377385409
 20
63354.77903156495
 30
0.0
 40
2000.0
  1
宝生号
100
AcDbText
  0
TEXT
  5
812
330
1E
100
AcDbEntity
  8
LAY0_0
 62
     0
100
AcDbText
 10
79013.49868391948
 20
47601.8743367684
 30
0.0
 40
800.0
  1
H=0.6
100
AcDbText
  0
ARC
  5
81E
330
1E
100
AcDbEntity
  8
0
  6
Continuous
100
AcDbCircle
 10
52314.45572328456
 20
56929.09209121664
 30
0.0
 40
84.68100772594175
100
AcDbArc
 50
10.42491295730551
 51
210.5830313444273
  0
LINE
  5
81F
330
1E
100
AcDbEntity
  8
0
  6
Continuous
100
AcDbLine
 10
45944.99824669775
 20
36868.93882070787
 30
0.0
 11
45948.32515630195
 21
40236.27852255059
 31
0.0
  0
LINE
  5
820
330
1E
100
AcDbEntity
  8
0
  6
Continuous
100
AcDbLine
 10
45917.28061187721
 20
41297.32508198707
 30
0.0
 11
45917.28061187721
 21
41526.42822265629
 31
0.0
  0
LINE
  5
82A
330
1E
100
AcDbEntity
  8
LAY0_0
  6
Continuous
 62
     0
100
AcDbLine
 10
45924.7924804688
 20
44893.88355009793
 30
0.0
 11
45924.7924804688
 21
44331.6772460938
 31
0.0
  0
LINE
  5
82D
330
1E
100
AcDbEntity
  8
LAY0_0
  6
Continuous
 62
     0
100
AcDbLine
 10
91032.65380859381
 20
25726.3793945313
 30
0.0
 11
93335.33935546881
 21
25726.3793945313
 31
0.0
  0
LINE
  5
82E
330
1E
100
AcDbEntity
  8
LAY0_0
  6
Continuous
 62
     0
100
AcDbLine
 10
61879.60205078129
 20
25726.42822265629
 30
0.0
 11
61879.6020507813
 21
41726.42822265629
 31
0.0
  0
LINE
  5
82F
330
1E
100
AcDbEntity
  8
LAY0_0
  6
Continuous
 62
     0
100
AcDbLine
 10
80179.60205078129
 20
40926.42822265629
 30
0.0
 11
62143.3715820313
 21
40926.42822265629
 31
0.0
  0
LINE
  5
830
330
1E
100
AcDbEntity
  8
LAY0_0
  6
Continuous
 62
     0
100
AcDbLine
 10
89769.60959428964
 20
41726.42822265629
 30
0.0
 11
46117.28061187721
 21
41726.42822265629
 31
0.0
  0
ARC
  5
836
330
1E
100
AcDbEntity
  8
0
  6
Continuous
100
AcDbCircle
 10
46125.1068115234
 20
25926.42822265629
 30
0.0
 40
200.0000000000036
100
AcDbArc
 50
180.0
 51
270.0
  0
ARC
  5
83D
330
1E
100
AcDbEntity
  8
0
  6
Continuous
100
AcDbCircle
 10
46425.10681152341
 20
30514.25781249999
 30
0.0
 40
500.0
100
AcDbArc
 50
90.0
 51
180.0
  0
ARC
  5
845
330
1E
100
AcDbEntity
  8
0
  6
Continuous
100
AcDbCircle
 10
46213.5882568359
 20
35420.3564453125
 30
0.0
 40
770.0
100
AcDbArc
 50
90.0
 51
180.0
  0
ARC
  5
846
330
1E
100
AcDbEntity
  8
0
  6
Continuous
100
AcDbCircle
 10
46213.5882568359
 20
31935.24658203129
 30
0.0
 40
770.0
100
AcDbArc
 50
180.0
 51
270.0
  0
ARC
  5
84C
330
1E
100
AcDbEntity
  8
0
  6
Continuous
100
AcDbCircle
 10
46188.4826660156
 20
35441.35131835939
 30
0.0
 40
900.0
100
AcDbArc
 50
90.0
 51
180.0000000000004
  0
ARC
  5
84D
330
1E
100
AcDbEntity
  8
0
  6
Continuous
100
AcDbCircle
 10
46188.4826660156
 20
31941.3330078125
 30
0.0
 40
900.0
100
AcDbArc
 50
180.0000000000002
 51
270.0
  0
ARC
  5
851
330
1E
100
AcDbEntity
  8
0
  6
Continuous
100
AcDbCircle
 10
46444.99800266516
 20
36868.4448242188
 30
0.0
 40
500.0
100
AcDbArc
 50
179.9433921629542
 51
270.0
  0
ARC
  5
854
330
1E
100
AcDbEntity
  8
0
  6
Continuous
100
AcDbCircle
 10
46117.28061187721
 20
41526.42822265629
 30
0.0
 40
200.0
100
AcDbArc
 50
90.0
 51
180.0
  0
LINE
  5
856
330
1E
100
AcDbEntity
  8
LAY0_0
  6
Continuous
 62
     0
100
AcDbLine
 10
46444.99800266516
 20
33691.3513242188
 30
0.0
 11
57000.9887695313
 21
33691.3513242188
 31
0.0
  0
LINE
  5
87D
330
1E
100
AcDbEntity
  8
LAY0_0
  6
Continuous
 62
     0
100
AcDbLine
 10
80179.60205078129
 20
40926.42822265629
 30
0.0
 11
80179.60205078129
 21
41226.3793945313
 31
0.0
  0
LINE
  5
87E
330
1E
100
AcDbEntity
  8
LAY0_0
  6
Continuous
 62
     0
100
AcDbLine
 10
80179.6020507813
 20
26226.42822265628
 30
0.0
 11
80179.60205078129
 21
26526.42822265628
 31
0.0
  0
LINE
  5
880
330
1E
100
AcDbEntity
  8
0
  6
Continuous
100
AcDbLine
 10
80179.60205078129
 20
49156.80161831678
 30
0.0
 11
80179.60205078129
 21
49251.4770507813
 31
0.0
  0
LINE
  5
882
330
1E
100
AcDbEntity
  8
0
  6
Continuous
100
AcDbLine
 10
90132.18994140631
 20
55413.3728027344
 30
0.0
 11
90092.2241210938
 21
53413.37890625
 31
0.0
  0
CIRCLE
  5
883
330
1E
100
AcDbEntity
  8
0
  6
Continuous
100
AcDbCircle
 10
90160.08300781249
 20
56260.7543945313
 30
0.0
 40
180.0571680068969
  0
LINE
  5
887
330
1E
100
AcDbEntity
  8
0
  6
Continuous
100
AcDbLine
 10
81807.8125
 20
50937.1887207031
 30
0.0
 11
82685.7116699219
 21
50769.14672851559
 31
0.0
  0
LINE
  5
888
330
1E
100
AcDbEntity
  8
0
  6
Continuous
100
AcDbLine
 10
82685.7116699219
 20
50769.14672851559
 30
0.0
 11
84444.72656249999
 21
50699.09057617191
 31
0.0
  0
LINE
  5
88A
330
1E
100
AcDbEntity
  8
0
  6
Continuous
100
AcDbLine
 10
84579.95002720076
 20
50699.09057617191
 30
0.0
 11
84579.95002720076
 21
49318.1335449219
 31
0.0
  0
LINE
  5
88B
330
1E
100
AcDbEntity
  8
0
  6
Continuous
100
AcDbLine
 10
86998.11258129335
 20
50699.09057617191
 30
0.0
 11
86998.11258129336
 21
49699.3835449219
 31
0.0
  0
LINE
  5
88C
330
1E
100
AcDbEntity
  8
0
  6
Continuous
100
AcDbLine
 10
85644.7265625
 20
53950.048828125
 30
0.0
 11
85644.72656249996
 21
53253.90124240351
 31
0.0
  0
LINE
  5
88D
330
1E
100
AcDbEntity
  8
0
  6
Continuous
100
AcDbLine
 10
85685.62622070309
 20
53032.421875
 30
0.0
 11
85737.3352050781
 21
53080.03540039059
 31
0.0
  0
LINE
  5
891
330
1E
100
AcDbEntity
  8
0
  6
Continuous
100
AcDbLine
 10
49854.6264648438
 20
59365.7653808594
 30
0.0
 11
49522.15854076933
 21
59365.7653808594
 31
0.0
  0
LINE
  5
893
330
1E
100
AcDbEntity
  8
0
  6
Continuous
100
AcDbLine
 10
59988.6474609375
 20
55699.09057617191
 30
0.0
 11
59730.126953125
 21
55699.09057617191
 31
0.0
  0
LINE
  5
897
330
1E
100
AcDbEntity
  8
0
  6
Continuous
100
AcDbLine
 10
47024.1882324219
 20
45742.4865722656
 30
0.0
 11
48721.57773217074
 21
45876.38775820185
 31
0.0
  0
LINE
  5
899
330
1E
100
AcDbEntity
  8
LAY0_0
  6
Continuous
 62
     0
100
AcDbLine
 10
46888.15917968749
 20
44900.8239746094
 30
0.0
 11
46888.15917968749
 21
44947.17407226559
 31
0.0
  0
LINE
  5
89A
330
1E
100
AcDbEntity
  8
LAY0_0
  6
Continuous
 62
     0
100
AcDbLine
 10
46828.7567138672
 20
44900.8239746094
 30
0.0
 11
46828.7567138672
 21
44947.17407226559
 31
0.0
  0
LINE
  5
89B
330
1E
100
AcDbEntity
  8
LAY0_0
  6
Continuous
 62
     0
100
AcDbLine
 10
46828.75671386719
 20
46569.4274902344
 30
0.0
 11
46828.75671386719
 21
46754.68665081723
 31
0.0
  0
LINE
  5
89C
330
1E
100
AcDbEntity
  8
LAY0_0
  6
Continuous
 62
     0
100
AcDbLine
 10
46888.15917968749
 20
46569.4274902344
 30
0.0
 11
46888.15917968749
 21
46752.37439817703
 31
0.0
  0
VIEWPORT
  5
818
102
{ACAD_XDICTIONARY
360
86F
102
}
330
1A
100
AcDbEntity
 67
     1
  8
0
  6
Continuous
100
AcDbViewport
 10
5.72250065841074
 20
4.009999975444764
 30
0.0
 40
15.59149929882923
 41
8.749659944068728
 68
     1
 69
     1
 12
5.72250065841074
 22
4.009999975444764
 13
0.0
 23
0.0
 14
10.0
 24
10.0
 15
10.0
 25
10.0
 16
0.0
 26
0.0
 36
1.0
 17
0.0
 27
0.0
 37
0.0
 42
50.0
 43
0.0
 44
0.0
 45
8.749659944068728
 50
0.0
 51
0.0
 72
   100
 90
    32800
  1

281
     0
 71
     1
 74
     0
110
0.0
120
0.0
130
0.0
111
1.0
121
0.0
131
0.0
112
0.0
122
1.0
132
0.0
 79
     0
146
0.0
  0
VIEWPORT
  5
81A
102
{ACAD_XDICTIONARY
360
871
102
}
330
1A
100
AcDbEntity
 67
     1
  8
0
  6
Continuous
100
AcDbViewport
 10
5.722500419053505
 20
4.009999914432135
 30
0.0
 40
9.156000670485608
 41
6.415999863091418
 68
     2
 69
     2
 12
70309.61608886719
 22
42615.99858601888
 13
0.0
 23
0.0
 14
1.0
 24
1.0
 15
0.0
 25
0.0
 16
0.0
 26
0.0
 36
1.0
 17
0.0
 27
0.0
 37
0.0
 42
50.0
 43
0.0
 44
0.0
 45
41860.59829855739
 50
0.0
 51
0.0
 72
   100
 90
    32800
  1

281
     0
 71
     1
 74
     0
110
0.0
120
0.0
130
0.0
111
1.0
121
0.0
131
0.0
112
0.0
122
1.0
132
0.0
 79
     0
146
0.0
  0
ENDSEC
  0
SECTION
  2
OBJECTS
  0
DICTIONARY
  5
C
330
0
100
AcDbDictionary
281
     1
  3
ACAD_COLOR
350
826
  3
ACAD_GROUP
350
D
  3
ACAD_LAYOUT
350
19
  3
ACAD_MATERIAL
350
825
  3
ACAD_MLINESTYLE
350
16
  3
ACAD_PLOTSETTINGS
350
18
  3
ACAD_PLOTSTYLENAME
350
E
  3
AcDbVariableDictionary
350
822
  0
DICTIONARY
  5
86F
330
818
100
AcDbDictionary
280
     1
281
     1
  3
ACAD_XREC_ROUNDTRIP
360
870
  0
DICTIONARY
  5
871
330
81A
100
AcDbDictionary
280
     1
281
     1
  3
ACAD_XREC_ROUNDTRIP
360
872
  0
DICTIONARY
  5
826
102
{ACAD_REACTORS
330
C
102
}
330
C
100
AcDbDictionary
281
     1
  0
DICTIONARY
  5
D
102
{ACAD_REACTORS
330
C
102
}
330
C
100
AcDbDictionary
281
     1
  0
DICTIONARY
  5
19
102
{ACAD_REACTORS
330
C
102
}
330
C
100
AcDbDictionary
281
     1
  3
Model
350
21
  3
ﾚｲｱｳﾄ1
350
1D
  0
DICTIONARY
  5
825
102
{ACAD_REACTORS
330
C
102
}
330
C
100
AcDbDictionary
281
     1
  0
DICTIONARY
  5
16
102
{ACAD_REACTORS
330
C
102
}
330
C
100
AcDbDictionary
281
     1
  3
Standard
350
17
  0
DICTIONARY
  5
18
102
{ACAD_REACTORS
330
C
102
}
330
C
100
AcDbDictionary
281
     1
  0
ACDBDICTIONARYWDFLT
  5
E
102
{ACAD_REACTORS
330
C
102
}
330
C
100
AcDbDictionary
281
     1
  3
Normal
350
F
100
AcDbDictionaryWithDefault
340
F
  0
DICTIONARY
  5
822
102
{ACAD_REACTORS
330
C
102
}
330
C
100
AcDbDictionary
281
     1
  3
DIMASSOC
350
823
  3
PROJECTNAME
350
873
  0
XRECORD
  5
870
102
{ACAD_REACTORS
330
86F
102
}
330
86F
100
AcDbXrecord
280
     1
102
SHADEPLOT
 70
     0
  0
XRECORD
  5
872
102
{ACAD_REACTORS
330
871
102
}
330
871
100
AcDbXrecord
280
     1
102
SHADEPLOT
 70
     0
  0
LAYOUT
  5
21
102
{ACAD_XDICTIONARY
360
86D
102
}
102
{ACAD_REACTORS
330
19
102
}
330
19
100
AcDbPlotSettings
  1

  2
Fax
  4

  6

 40
0.0
 41
0.0
 42
0.0
 43
0.0
 44
0.0
 45
0.0
 46
0.0
 47
0.0
 48
0.0
 49
0.0
140
0.0
141
0.0
142
1.0
143
1.0
 70
  1712
 72
     0
 73
     0
 74
     0
  7

 75
     0
147
1.0
148
0.0
149
0.0
100
AcDbLayout
  1
Model
 70
     1
 71
     0
 10
0.0
 20
0.0
 11
12.0
 21
9.0
 12
0.0
 22
0.0
 32
0.0
 14
0.0
 24
0.0
 34
0.0
 15
0.0
 25
0.0
 35
0.0
146
0.0
 13
0.0
 23
0.0
 33
0.0
 16
1.0
 26
0.0
 36
0.0
 17
0.0
 27
1.0
 37
0.0
 76
     0
330
1E
  0
LAYOUT
  5
1D
102
{ACAD_XDICTIONARY
360
86B
102
}
102
{ACAD_REACTORS
330
19
102
}
330
19
100
AcDbPlotSettings
  1

  2
Fax
  4
A4
  6

 40
3.174999952316284
 41
3.174999952316284
 42
3.175003051757812
 43
3.17498779296875
 44
210.0579986572265
 45
297.0530090332031
 46
0.0
 47
0.0
 48
0.0
 49
0.0
140
0.0
141
0.0
142
1.0
143
1.0
 70
   688
 72
     0
 73
     1
 74
     5
  7

 75
    16
147
1.0
148
0.0
149
0.0
100
AcDbLayout
  1
ﾚｲｱｳﾄ1
 70
     1
 71
     1
 10
-0.1249995194082185
 20
-0.1249999981226883
 11
11.57000083622969
 21
8.144999949012216
 12
0.0
 22
0.0
 32
0.0
 14
1.144500083810701
 24
0.8019999828864268
 34
0.0
 15
10.30050075429631
 25
7.217999845977844
 35
0.0
146
0.0
 13
0.0
 23
0.0
 33
0.0
 16
1.0
 26
0.0
 36
0.0
 17
0.0
 27
1.0
 37
0.0
 76
     0
330
1A
331
818
  0
MLINESTYLE
  5
17
102
{ACAD_REACTORS
330
16
102
}
330
16
100
AcDbMlineStyle
  2
STANDARD
 70
     0
  3

 62
   256
 51
90.0
 52
90.0
 71
     2
 49
0.5
 62
   256
  6
BYLAYER
 49
-0.5
 62
   256
  6
BYLAYER
  0
ACDBPLACEHOLDER
  5
F
102
{ACAD_REACTORS
330
E
102
}
330
E
  0
DICTIONARYVAR
  5
823
102
{ACAD_REACTORS
330
822
102
}
330
822
100
DictionaryVariables
280
     0
  1
1
  0
DICTIONARYVAR
  5
873
102
{ACAD_REACTORS
330
822
102
}
330
822
100
DictionaryVariables
280
     0
  1

  0
DICTIONARY
  5
86D
330
21
100
AcDbDictionary
280
     1
281
     1
  3
ACAD_XREC_ROUNDTRIP
360
86E
  0
DICTIONARY
  5
86B
330
1D
100
AcDbDictionary
280
     1
281
     1
  3
ACAD_XREC_ROUNDTRIP
360
86C
  0
XRECORD
  5
86E
102
{ACAD_REACTORS
330
86D
102
}
330
86D
100
AcDbXrecord
280
     1
102
SHADEPLOT
 70
     0
102
SHADEPLOTRESLEVEL
 70
     2
102
SHADEPLOTCUSTOMDPI
 70
   300
  0
XRECORD
  5
86C
102
{ACAD_REACTORS
330
86B
102
}
330
86B
100
AcDbXrecord
280
     1
102
SHADEPLOT
 70
     0
102
SHADEPLOTRESLEVEL
 70
     2
102
SHADEPLOTCUSTOMDPI
 70
   300
  0
ENDSEC
  0
EOF
